ISO-10303-21;
HEADER;
FILE_DESCRIPTION(('STEP AP214'),'1');
FILE_NAME('cctmp_B15EF232-95D8-48C7-8FD4-B92E6BE28EF0_2020_1_15_8_35_27_294..stp','2020-01-15T07:35:27',('Bosch Rexroth AG'),('CADClick - www.CADClick.com'),'Spatial InterOp 3D',' ','unknown authorization - (Healing Option Enabled)');
FILE_SCHEMA(('AUTOMOTIVE_DESIGN'));
ENDSEC;
DATA;
#1=MECHANICAL_DESIGN_GEOMETRIC_PRESENTATION_REPRESENTATION(' ',(#10,#11,#12,#13,#14,#15,#16,#17,#18,#19,#20,#21,#22,#23,#24),#6);
#2=PRODUCT_DEFINITION_CONTEXT('',#25,'design');
#3=APPLICATION_PROTOCOL_DEFINITION('INTERNATIONAL STANDARD','automotive_design',1994,#25);
#4=PRODUCT_CATEGORY_RELATIONSHIP('NONE','NONE',#26,#27);
#5=SHAPE_DEFINITION_REPRESENTATION(#28,#29);
#6= (GEOMETRIC_REPRESENTATION_CONTEXT(3)GLOBAL_UNCERTAINTY_ASSIGNED_CONTEXT((#32))GLOBAL_UNIT_ASSIGNED_CONTEXT((#34,#35,#36))REPRESENTATION_CONTEXT('NONE','WORKSPACE'));
#10=STYLED_ITEM('',(#38),#39);
#11=STYLED_ITEM('',(#40),#41);
#12=STYLED_ITEM('',(#42),#43);
#13=STYLED_ITEM('',(#44),#45);
#14=STYLED_ITEM('',(#46),#47);
#15=STYLED_ITEM('',(#48),#49);
#16=STYLED_ITEM('',(#50),#51);
#17=STYLED_ITEM('',(#52),#53);
#18=STYLED_ITEM('',(#54),#55);
#19=STYLED_ITEM('',(#56),#57);
#20=STYLED_ITEM('',(#58),#59);
#21=STYLED_ITEM('',(#60),#61);
#22=STYLED_ITEM('',(#62),#63);
#23=STYLED_ITEM('',(#64),#65);
#24=STYLED_ITEM('',(#66),#67);
#25=APPLICATION_CONTEXT(' ');
#26=PRODUCT_CATEGORY('part','NONE');
#27=PRODUCT_RELATED_PRODUCT_CATEGORY('detail',' ',(#68));
#28=PRODUCT_DEFINITION_SHAPE('NONE','NONE',#69);
#29=ADVANCED_BREP_SHAPE_REPRESENTATION('2020_01_15__08-35-27-294',(#67,#70),#6);
#32=UNCERTAINTY_MEASURE_WITH_UNIT(LENGTH_MEASURE(1.0E-006),#34,'','');
#34= (CONVERSION_BASED_UNIT('MILLIMETRE',#73)LENGTH_UNIT()NAMED_UNIT(#76));
#35= (NAMED_UNIT(#78)PLANE_ANGLE_UNIT()SI_UNIT($,.RADIAN.));
#36= (NAMED_UNIT(#78)SOLID_ANGLE_UNIT()SI_UNIT($,.STERADIAN.));
#38=PRESENTATION_STYLE_ASSIGNMENT((#84));
#39=ADVANCED_FACE('',(#85),#86,.F.);
#40=PRESENTATION_STYLE_ASSIGNMENT((#87));
#41=ADVANCED_FACE('',(#88),#89,.T.);
#42=PRESENTATION_STYLE_ASSIGNMENT((#90));
#43=ADVANCED_FACE('',(#91),#92,.T.);
#44=PRESENTATION_STYLE_ASSIGNMENT((#93));
#45=ADVANCED_FACE('',(#94),#95,.F.);
#46=PRESENTATION_STYLE_ASSIGNMENT((#96));
#47=ADVANCED_FACE('',(#97),#98,.F.);
#48=PRESENTATION_STYLE_ASSIGNMENT((#99));
#49=ADVANCED_FACE('',(#100),#101,.T.);
#50=PRESENTATION_STYLE_ASSIGNMENT((#102));
#51=ADVANCED_FACE('',(#103),#104,.F.);
#52=PRESENTATION_STYLE_ASSIGNMENT((#105));
#53=ADVANCED_FACE('',(#106),#107,.F.);
#54=PRESENTATION_STYLE_ASSIGNMENT((#108));
#55=ADVANCED_FACE('',(#109,#110),#111,.T.);
#56=PRESENTATION_STYLE_ASSIGNMENT((#112));
#57=ADVANCED_FACE('',(#113),#114,.T.);
#58=PRESENTATION_STYLE_ASSIGNMENT((#115));
#59=ADVANCED_FACE('',(#116,#117),#118,.T.);
#60=PRESENTATION_STYLE_ASSIGNMENT((#119));
#61=ADVANCED_FACE('',(#120),#121,.T.);
#62=PRESENTATION_STYLE_ASSIGNMENT((#122));
#63=ADVANCED_FACE('',(#123),#124,.F.);
#64=PRESENTATION_STYLE_ASSIGNMENT((#125));
#65=ADVANCED_FACE('',(#126,#127),#128,.T.);
#66=PRESENTATION_STYLE_ASSIGNMENT((#129));
#67=MANIFOLD_SOLID_BREP('2020_01_15__08-35-27-294',#130);
#68=PRODUCT('2020_01_15__08-35-27-294','','PART--DESC',(#131));
#69=PRODUCT_DEFINITION('','NONE',#132,#2);
#70=AXIS2_PLACEMENT_3D('',#133,#134,#135);
#73=LENGTH_MEASURE_WITH_UNIT(LENGTH_MEASURE(1.0),#136);
#76=DIMENSIONAL_EXPONENTS(1.0,0.0,0.0,0.0,0.0,0.0,0.0);
#78=DIMENSIONAL_EXPONENTS(0.0,0.0,0.0,0.0,0.0,0.0,0.0);
#84=SURFACE_STYLE_USAGE(.BOTH.,#137);
#85=FACE_OUTER_BOUND('',#138,.T.);
#86=CONICAL_SURFACE('',#139,0.0100133609917119,0.785398163397448);
#87=SURFACE_STYLE_USAGE(.BOTH.,#140);
#88=FACE_OUTER_BOUND('',#141,.T.);
#89=CYLINDRICAL_SURFACE('',#142,22.0000000000002);
#90=SURFACE_STYLE_USAGE(.BOTH.,#143);
#91=FACE_OUTER_BOUND('',#144,.T.);
#92=CONICAL_SURFACE('',#145,14.3000000000006,0.230152823542585);
#93=SURFACE_STYLE_USAGE(.BOTH.,#146);
#94=FACE_OUTER_BOUND('',#147,.T.);
#95=CONICAL_SURFACE('',#148,10.3,0.523598775598252);
#96=SURFACE_STYLE_USAGE(.BOTH.,#149);
#97=FACE_OUTER_BOUND('',#150,.T.);
#98=CONICAL_SURFACE('',#151,10.5343045699262,0.230152823542659);
#99=SURFACE_STYLE_USAGE(.BOTH.,#152);
#100=FACE_OUTER_BOUND('',#153,.T.);
#101=PLANE('',#154);
#102=SURFACE_STYLE_USAGE(.BOTH.,#155);
#103=FACE_OUTER_BOUND('',#156,.T.);
#104=CONICAL_SURFACE('',#157,10.5343045699262,0.230152823542659);
#105=SURFACE_STYLE_USAGE(.BOTH.,#158);
#106=FACE_OUTER_BOUND('',#159,.T.);
#107=CONICAL_SURFACE('',#160,10.3,0.523598775598252);
#108=SURFACE_STYLE_USAGE(.BOTH.,#161);
#109=FACE_OUTER_BOUND('',#162,.T.);
#110=FACE_BOUND('',#163,.T.);
#111=PLANE('',#164);
#112=SURFACE_STYLE_USAGE(.BOTH.,#165);
#113=FACE_OUTER_BOUND('',#166,.T.);
#114=CONICAL_SURFACE('',#167,14.3000000000006,0.230152823542585);
#115=SURFACE_STYLE_USAGE(.BOTH.,#168);
#116=FACE_OUTER_BOUND('',#169,.T.);
#117=FACE_BOUND('',#170,.T.);
#118=PLANE('',#171);
#119=SURFACE_STYLE_USAGE(.BOTH.,#172);
#120=FACE_OUTER_BOUND('',#173,.T.);
#121=CYLINDRICAL_SURFACE('',#174,22.0000000000002);
#122=SURFACE_STYLE_USAGE(.BOTH.,#175);
#123=FACE_OUTER_BOUND('',#176,.T.);
#124=CONICAL_SURFACE('',#177,0.0100133609917119,0.785398163397448);
#125=SURFACE_STYLE_USAGE(.BOTH.,#178);
#126=FACE_BOUND('',#179,.T.);
#127=FACE_OUTER_BOUND('',#180,.T.);
#128=PLANE('',#181);
#129=SURFACE_STYLE_USAGE(.BOTH.,#182);
#130=CLOSED_SHELL('',(#39,#41,#43,#45,#47,#49,#51,#53,#55,#57,#59,#61,#63,#65));
#131=PRODUCT_CONTEXT('',#25,'mechanical');
#132=PRODUCT_DEFINITION_FORMATION_WITH_SPECIFIED_SOURCE(' ','NONE',#68,.NOT_KNOWN.);
#133=CARTESIAN_POINT('',(0.0,0.0,0.0));
#134=DIRECTION('',(0.0,0.0,1.0));
#135=DIRECTION('',(1.0,0.0,0.0));
#136= (NAMED_UNIT(#76)LENGTH_UNIT()SI_UNIT(.MILLI.,.METRE.));
#137=SURFACE_SIDE_STYLE('',(#184));
#138=EDGE_LOOP('',(#185,#186,#187));
#139=AXIS2_PLACEMENT_3D('',#188,#189,#190);
#140=SURFACE_SIDE_STYLE('',(#191));
#141=EDGE_LOOP('',(#192,#193,#194,#195));
#142=AXIS2_PLACEMENT_3D('',#196,#197,#198);
#143=SURFACE_SIDE_STYLE('',(#199));
#144=EDGE_LOOP('',(#200,#201,#202,#203));
#145=AXIS2_PLACEMENT_3D('',#204,#205,#206);
#146=SURFACE_SIDE_STYLE('',(#207));
#147=EDGE_LOOP('',(#208,#209,#210,#211));
#148=AXIS2_PLACEMENT_3D('',#212,#213,#214);
#149=SURFACE_SIDE_STYLE('',(#215));
#150=EDGE_LOOP('',(#216,#217,#218,#219));
#151=AXIS2_PLACEMENT_3D('',#220,#221,#222);
#152=SURFACE_SIDE_STYLE('',(#223));
#153=EDGE_LOOP('',(#224,#225));
#154=AXIS2_PLACEMENT_3D('',#226,#227,#228);
#155=SURFACE_SIDE_STYLE('',(#229));
#156=EDGE_LOOP('',(#230,#231,#232,#233));
#157=AXIS2_PLACEMENT_3D('',#234,#235,#236);
#158=SURFACE_SIDE_STYLE('',(#237));
#159=EDGE_LOOP('',(#238,#239,#240,#241));
#160=AXIS2_PLACEMENT_3D('',#242,#243,#244);
#161=SURFACE_SIDE_STYLE('',(#245));
#162=EDGE_LOOP('',(#246,#247));
#163=EDGE_LOOP('',(#248,#249));
#164=AXIS2_PLACEMENT_3D('',#250,#251,#252);
#165=SURFACE_SIDE_STYLE('',(#253));
#166=EDGE_LOOP('',(#254,#255,#256,#257));
#167=AXIS2_PLACEMENT_3D('',#258,#259,#260);
#168=SURFACE_SIDE_STYLE('',(#261));
#169=EDGE_LOOP('',(#262,#263));
#170=EDGE_LOOP('',(#264,#265));
#171=AXIS2_PLACEMENT_3D('',#266,#267,#268);
#172=SURFACE_SIDE_STYLE('',(#269));
#173=EDGE_LOOP('',(#270,#271,#272,#273));
#174=AXIS2_PLACEMENT_3D('',#274,#275,#276);
#175=SURFACE_SIDE_STYLE('',(#277));
#176=EDGE_LOOP('',(#278,#279,#280));
#177=AXIS2_PLACEMENT_3D('',#281,#282,#283);
#178=SURFACE_SIDE_STYLE('',(#284));
#179=EDGE_LOOP('',(#285,#286));
#180=EDGE_LOOP('',(#287,#288));
#181=AXIS2_PLACEMENT_3D('',#289,#290,#291);
#182=SURFACE_SIDE_STYLE('',(#292));
#184=SURFACE_STYLE_FILL_AREA(#293);
#185=ORIENTED_EDGE('',*,*,#294,.F.);
#186=ORIENTED_EDGE('',*,*,#295,.T.);
#187=ORIENTED_EDGE('',*,*,#296,.F.);
#188=CARTESIAN_POINT('',(1.13686837721616E-010,-8.470329472543E-019,2.86437562587418E-011));
#189=DIRECTION('',(0.0,-2.22044604929955E-016,-1.0));
#190=DIRECTION('',(0.0,1.0,-2.22044604929955E-016));
#191=SURFACE_STYLE_FILL_AREA(#297);
#192=ORIENTED_EDGE('',*,*,#298,.T.);
#193=ORIENTED_EDGE('',*,*,#299,.T.);
#194=ORIENTED_EDGE('',*,*,#300,.F.);
#195=ORIENTED_EDGE('',*,*,#301,.F.);
#196=CARTESIAN_POINT('',(0.0,5.6843418860808E-014,2.5));
#197=DIRECTION('',(0.0,-2.22044604925031E-016,-1.0));
#198=DIRECTION('',(0.0,1.0,-2.22044604925031E-016));
#199=SURFACE_STYLE_FILL_AREA(#302);
#200=ORIENTED_EDGE('',*,*,#303,.T.);
#201=ORIENTED_EDGE('',*,*,#304,.T.);
#202=ORIENTED_EDGE('',*,*,#305,.F.);
#203=ORIENTED_EDGE('',*,*,#306,.F.);
#204=CARTESIAN_POINT('',(0.0,5.63785129692462E-014,5.00000000000021));
#205=DIRECTION('',(0.0,-2.12291334472678E-016,-1.0));
#206=DIRECTION('',(0.0,1.0,-2.12291334472678E-016));
#207=SURFACE_STYLE_FILL_AREA(#307);
#208=ORIENTED_EDGE('',*,*,#308,.F.);
#209=ORIENTED_EDGE('',*,*,#309,.T.);
#210=ORIENTED_EDGE('',*,*,#310,.F.);
#211=ORIENTED_EDGE('',*,*,#311,.F.);
#212=CARTESIAN_POINT('',(0.0,5.72458747072346E-014,9.00000000000011));
#213=DIRECTION('',(-0.0,2.52629632423808E-016,1.0));
#214=DIRECTION('',(0.0,-1.0,2.52629632423808E-016));
#215=SURFACE_STYLE_FILL_AREA(#312);
#216=ORIENTED_EDGE('',*,*,#308,.T.);
#217=ORIENTED_EDGE('',*,*,#313,.T.);
#218=ORIENTED_EDGE('',*,*,#314,.F.);
#219=ORIENTED_EDGE('',*,*,#315,.F.);
#220=CARTESIAN_POINT('',(0.0,5.63785129692462E-014,5.00000000000023));
#221=DIRECTION('',(0.0,-2.47010630525507E-016,-1.0));
#222=DIRECTION('',(0.0,1.0,-2.47010630525507E-016));
#223=SURFACE_STYLE_FILL_AREA(#316);
#224=ORIENTED_EDGE('',*,*,#314,.T.);
#225=ORIENTED_EDGE('',*,*,#317,.T.);
#226=CARTESIAN_POINT('',(-5.26715228496312,5.6843418860808E-014,5.00000000000023));
#227=DIRECTION('',(0.0,2.22044604925031E-016,1.0));
#228=DIRECTION('',(0.0,-1.0,2.22044604925031E-016));
#229=SURFACE_STYLE_FILL_AREA(#318);
#230=ORIENTED_EDGE('',*,*,#313,.F.);
#231=ORIENTED_EDGE('',*,*,#319,.T.);
#232=ORIENTED_EDGE('',*,*,#315,.T.);
#233=ORIENTED_EDGE('',*,*,#317,.F.);
#234=CARTESIAN_POINT('',(0.0,5.63785129692462E-014,5.00000000000023));
#235=DIRECTION('',(0.0,-2.47010630525507E-016,-1.0));
#236=DIRECTION('',(0.0,1.0,-2.47010630525507E-016));
#237=SURFACE_STYLE_FILL_AREA(#320);
#238=ORIENTED_EDGE('',*,*,#309,.F.);
#239=ORIENTED_EDGE('',*,*,#319,.F.);
#240=ORIENTED_EDGE('',*,*,#311,.T.);
#241=ORIENTED_EDGE('',*,*,#321,.F.);
#242=CARTESIAN_POINT('',(0.0,5.72458747072346E-014,9.00000000000011));
#243=DIRECTION('',(-0.0,2.52629632423808E-016,1.0));
#244=DIRECTION('',(0.0,-1.0,2.52629632423808E-016));
#245=SURFACE_STYLE_FILL_AREA(#322);
#246=ORIENTED_EDGE('',*,*,#303,.F.);
#247=ORIENTED_EDGE('',*,*,#323,.F.);
#248=ORIENTED_EDGE('',*,*,#310,.T.);
#249=ORIENTED_EDGE('',*,*,#321,.T.);
#250=CARTESIAN_POINT('',(-11.8313908601478,5.6843418860808E-014,9.00000000000023));
#251=DIRECTION('',(0.0,2.22044604925031E-016,1.0));
#252=DIRECTION('',(0.0,-1.0,2.22044604925031E-016));
#253=SURFACE_STYLE_FILL_AREA(#324);
#254=ORIENTED_EDGE('',*,*,#304,.F.);
#255=ORIENTED_EDGE('',*,*,#323,.T.);
#256=ORIENTED_EDGE('',*,*,#306,.T.);
#257=ORIENTED_EDGE('',*,*,#325,.F.);
#258=CARTESIAN_POINT('',(0.0,5.63785129692462E-014,5.00000000000021));
#259=DIRECTION('',(0.0,-2.12291334472678E-016,-1.0));
#260=DIRECTION('',(0.0,1.0,-2.12291334472678E-016));
#261=SURFACE_STYLE_FILL_AREA(#326);
#262=ORIENTED_EDGE('',*,*,#298,.F.);
#263=ORIENTED_EDGE('',*,*,#327,.F.);
#264=ORIENTED_EDGE('',*,*,#305,.T.);
#265=ORIENTED_EDGE('',*,*,#325,.T.);
#266=CARTESIAN_POINT('',(-18.1500000000004,5.6843418860808E-014,5.00000000000023));
#267=DIRECTION('',(0.0,2.22044604925031E-016,1.0));
#268=DIRECTION('',(0.0,-1.0,2.22044604925031E-016));
#269=SURFACE_STYLE_FILL_AREA(#328);
#270=ORIENTED_EDGE('',*,*,#299,.F.);
#271=ORIENTED_EDGE('',*,*,#327,.T.);
#272=ORIENTED_EDGE('',*,*,#301,.T.);
#273=ORIENTED_EDGE('',*,*,#329,.F.);
#274=CARTESIAN_POINT('',(0.0,5.6843418860808E-014,2.5));
#275=DIRECTION('',(0.0,-2.22044604925031E-016,-1.0));
#276=DIRECTION('',(0.0,1.0,-2.22044604925031E-016));
#277=SURFACE_STYLE_FILL_AREA(#330);
#278=ORIENTED_EDGE('',*,*,#295,.F.);
#279=ORIENTED_EDGE('',*,*,#294,.T.);
#280=ORIENTED_EDGE('',*,*,#331,.F.);
#281=CARTESIAN_POINT('',(1.13686837721616E-010,-8.470329472543E-019,2.86437562587418E-011));
#282=DIRECTION('',(0.0,-2.22044604929955E-016,-1.0));
#283=DIRECTION('',(0.0,1.0,-2.22044604929955E-016));
#284=SURFACE_STYLE_FILL_AREA(#332);
#285=ORIENTED_EDGE('',*,*,#296,.T.);
#286=ORIENTED_EDGE('',*,*,#331,.T.);
#287=ORIENTED_EDGE('',*,*,#300,.T.);
#288=ORIENTED_EDGE('',*,*,#329,.T.);
#289=CARTESIAN_POINT('',(-11.005006680411,0.0,2.27373675443232E-013));
#290=DIRECTION('',(0.0,-2.22044604925031E-016,-1.0));
#291=DIRECTION('',(0.0,1.0,-2.22044604925031E-016));
#292=SURFACE_STYLE_FILL_AREA(#333);
#293=FILL_AREA_STYLE('',(#334));
#294=EDGE_CURVE('',#335,#336,#337,.T.);
#295=EDGE_CURVE('',#335,#338,#339,.T.);
#296=EDGE_CURVE('',#336,#338,#340,.T.);
#297=FILL_AREA_STYLE('',(#341));
#298=EDGE_CURVE('',#342,#343,#344,.T.);
#299=EDGE_CURVE('',#343,#345,#346,.T.);
#300=EDGE_CURVE('',#347,#345,#348,.T.);
#301=EDGE_CURVE('',#342,#347,#349,.T.);
#302=FILL_AREA_STYLE('',(#350));
#303=EDGE_CURVE('',#351,#352,#353,.T.);
#304=EDGE_CURVE('',#352,#354,#355,.T.);
#305=EDGE_CURVE('',#356,#354,#357,.T.);
#306=EDGE_CURVE('',#351,#356,#358,.T.);
#307=FILL_AREA_STYLE('',(#359));
#308=EDGE_CURVE('',#360,#361,#362,.T.);
#309=EDGE_CURVE('',#360,#363,#364,.T.);
#310=EDGE_CURVE('',#365,#363,#366,.T.);
#311=EDGE_CURVE('',#361,#365,#367,.T.);
#312=FILL_AREA_STYLE('',(#368));
#313=EDGE_CURVE('',#361,#369,#370,.T.);
#314=EDGE_CURVE('',#371,#369,#372,.T.);
#315=EDGE_CURVE('',#360,#371,#373,.T.);
#316=FILL_AREA_STYLE('',(#374));
#317=EDGE_CURVE('',#369,#371,#375,.T.);
#318=FILL_AREA_STYLE('',(#376));
#319=EDGE_CURVE('',#361,#360,#377,.T.);
#320=FILL_AREA_STYLE('',(#378));
#321=EDGE_CURVE('',#363,#365,#379,.T.);
#322=FILL_AREA_STYLE('',(#380));
#323=EDGE_CURVE('',#352,#351,#381,.T.);
#324=FILL_AREA_STYLE('',(#382));
#325=EDGE_CURVE('',#354,#356,#383,.T.);
#326=FILL_AREA_STYLE('',(#384));
#327=EDGE_CURVE('',#343,#342,#385,.T.);
#328=FILL_AREA_STYLE('',(#386));
#329=EDGE_CURVE('',#345,#347,#387,.T.);
#330=FILL_AREA_STYLE('',(#388));
#331=EDGE_CURVE('',#338,#336,#389,.T.);
#332=FILL_AREA_STYLE('',(#390));
#333=FILL_AREA_STYLE('',(#391));
#334=FILL_AREA_STYLE_COLOUR('',#392);
#335=VERTEX_POINT('',#393);
#336=VERTEX_POINT('',#394);
#337=LINE('',#395,#396);
#338=VERTEX_POINT('',#397);
#339=LINE('',#398,#399);
#340=CIRCLE('',#400,0.0100133609635122);
#341=FILL_AREA_STYLE_COLOUR('',#401);
#342=VERTEX_POINT('',#402);
#343=VERTEX_POINT('',#403);
#344=CIRCLE('',#404,22.0000000000002);
#345=VERTEX_POINT('',#405);
#346=LINE('',#406,#407);
#347=VERTEX_POINT('',#408);
#348=CIRCLE('',#409,22.0000000000002);
#349=LINE('',#410,#411);
#350=FILL_AREA_STYLE_COLOUR('',#412);
#351=VERTEX_POINT('',#413);
#352=VERTEX_POINT('',#414);
#353=CIRCLE('',#415,13.3627817202956);
#354=VERTEX_POINT('',#416);
#355=LINE('',#417,#418);
#356=VERTEX_POINT('',#419);
#357=CIRCLE('',#420,14.3000000000006);
#358=LINE('',#421,#422);
#359=FILL_AREA_STYLE_COLOUR('',#423);
#360=VERTEX_POINT('',#424);
#361=VERTEX_POINT('',#425);
#362=CIRCLE('',#426,9.79999999999996);
#363=VERTEX_POINT('',#427);
#364=LINE('',#428,#429);
#365=VERTEX_POINT('',#430);
#366=CIRCLE('',#431,10.3);
#367=LINE('',#432,#433);
#368=FILL_AREA_STYLE_COLOUR('',#434);
#369=VERTEX_POINT('',#435);
#370=LINE('',#436,#437);
#371=VERTEX_POINT('',#438);
#372=CIRCLE('',#439,10.5343045699262);
#373=LINE('',#440,#441);
#374=FILL_AREA_STYLE_COLOUR('',#442);
#375=CIRCLE('',#443,10.5343045699262);
#376=FILL_AREA_STYLE_COLOUR('',#444);
#377=CIRCLE('',#445,9.79999999999996);
#378=FILL_AREA_STYLE_COLOUR('',#446);
#379=CIRCLE('',#447,10.3);
#380=FILL_AREA_STYLE_COLOUR('',#448);
#381=CIRCLE('',#449,13.3627817202956);
#382=FILL_AREA_STYLE_COLOUR('',#450);
#383=CIRCLE('',#451,14.3000000000006);
#384=FILL_AREA_STYLE_COLOUR('',#452);
#385=CIRCLE('',#453,22.0000000000002);
#386=FILL_AREA_STYLE_COLOUR('',#454);
#387=CIRCLE('',#455,22.0000000000002);
#388=FILL_AREA_STYLE_COLOUR('',#456);
#389=CIRCLE('',#457,0.0100133609635122);
#390=FILL_AREA_STYLE_COLOUR('',#458);
#391=FILL_AREA_STYLE_COLOUR('',#459);
#392=COLOUR_RGB('',0.509803950786591,0.509803950786591,0.588235318660736);
#393=CARTESIAN_POINT('',(1.13686837721616E-010,1.11170642111177E-018,0.0100133610203557));
#394=CARTESIAN_POINT('',(1.13686837721616E-010,0.0100133609635122,5.6843418860808E-011));
#395=CARTESIAN_POINT('',(1.13686837721616E-010,0.0100133609917119,2.8643754035329E-011));
#396=VECTOR('',#460,1000.0);
#397=CARTESIAN_POINT('',(1.13686838947899E-010,-0.0100133609635122,5.68434233076336E-011));
#398=CARTESIAN_POINT('',(1.13686838947899E-010,-0.0100133609917119,2.86437584821546E-011));
#399=VECTOR('',#461,1000.0);
#400=AXIS2_PLACEMENT_3D('',#462,#463,#464);
#401=COLOUR_RGB('',0.509803950786591,0.509803950786591,0.588235318660736);
#402=CARTESIAN_POINT('',(0.0,22.0000000000003,5.00000000000011));
#403=CARTESIAN_POINT('',(2.6942229581242E-015,-22.0000000000002,5.00000000000012));
#404=AXIS2_PLACEMENT_3D('',#465,#466,#467);
#405=CARTESIAN_POINT('',(2.6942229581242E-015,-22.0000000000002,4.88498130835074E-015));
#406=CARTESIAN_POINT('',(2.6942229581242E-015,-22.0000000000002,2.5));
#407=VECTOR('',#468,1000.0);
#408=CARTESIAN_POINT('',(0.0,22.0000000000003,-4.88498130835074E-015));
#409=AXIS2_PLACEMENT_3D('',#469,#470,#471);
#410=CARTESIAN_POINT('',(0.0,22.0000000000003,2.5));
#411=VECTOR('',#472,1000.0);
#412=COLOUR_RGB('',0.509803950786591,0.509803950786591,0.588235318660736);
#413=CARTESIAN_POINT('',(0.0,13.3627817202956,9.00000000000021));
#414=CARTESIAN_POINT('',(1.69385685446363E-015,-13.3627817202955,9.00000000000022));
#415=AXIS2_PLACEMENT_3D('',#473,#474,#475);
#416=CARTESIAN_POINT('',(1.75124492278079E-015,-14.3000000000005,5.00000000000022));
#417=CARTESIAN_POINT('',(1.75124492278079E-015,-14.3000000000005,5.00000000000022));
#418=VECTOR('',#476,1000.0);
#419=CARTESIAN_POINT('',(0.0,14.3000000000006,5.00000000000021));
#420=AXIS2_PLACEMENT_3D('',#477,#478,#479);
#421=CARTESIAN_POINT('',(0.0,14.3000000000006,5.00000000000021));
#422=VECTOR('',#480,1000.0);
#423=COLOUR_RGB('',0.509803950786591,0.509803950786591,0.588235318660736);
#424=CARTESIAN_POINT('',(0.0,9.80000000000001,8.13397459621558));
#425=CARTESIAN_POINT('',(1.24511705022238E-015,-9.7999999999999,8.13397459621558));
#426=AXIS2_PLACEMENT_3D('',#481,#482,#483);
#427=CARTESIAN_POINT('',(1.26138620312177E-015,10.3,9.00000000000011));
#428=CARTESIAN_POINT('',(1.26138620312177E-015,10.3,9.00000000000011));
#429=VECTOR('',#484,1000.0);
#430=CARTESIAN_POINT('',(0.0,-10.2999999999999,9.00000000000012));
#431=AXIS2_PLACEMENT_3D('',#485,#486,#487);
#432=CARTESIAN_POINT('',(0.0,-10.2999999999999,9.00000000000012));
#433=VECTOR('',#488,1000.0);
#434=COLOUR_RGB('',0.509803950786591,0.509803950786591,0.588235318660736);
#435=CARTESIAN_POINT('',(1.29008023728035E-015,-10.5343045699262,5.00000000000023));
#436=CARTESIAN_POINT('',(1.29008023728035E-015,-10.5343045699262,5.00000000000023));
#437=VECTOR('',#489,1000.0);
#438=CARTESIAN_POINT('',(0.0,10.5343045699263,5.00000000000022));
#439=AXIS2_PLACEMENT_3D('',#490,#491,#492);
#440=CARTESIAN_POINT('',(0.0,10.5343045699263,5.00000000000022));
#441=VECTOR('',#493,1000.0);
#442=COLOUR_RGB('',0.509803950786591,0.509803950786591,0.588235318660736);
#443=AXIS2_PLACEMENT_3D('',#494,#495,#496);
#444=COLOUR_RGB('',0.509803950786591,0.509803950786591,0.588235318660736);
#445=AXIS2_PLACEMENT_3D('',#497,#498,#499);
#446=COLOUR_RGB('',0.509803950786591,0.509803950786591,0.588235318660736);
#447=AXIS2_PLACEMENT_3D('',#500,#501,#502);
#448=COLOUR_RGB('',0.509803950786591,0.509803950786591,0.588235318660736);
#449=AXIS2_PLACEMENT_3D('',#503,#504,#505);
#450=COLOUR_RGB('',0.509803950786591,0.509803950786591,0.588235318660736);
#451=AXIS2_PLACEMENT_3D('',#506,#507,#508);
#452=COLOUR_RGB('',0.509803950786591,0.509803950786591,0.588235318660736);
#453=AXIS2_PLACEMENT_3D('',#509,#510,#511);
#454=COLOUR_RGB('',0.509803950786591,0.509803950786591,0.588235318660736);
#455=AXIS2_PLACEMENT_3D('',#512,#513,#514);
#456=COLOUR_RGB('',0.509803950786591,0.509803950786591,0.588235318660736);
#457=AXIS2_PLACEMENT_3D('',#515,#516,#517);
#458=COLOUR_RGB('',0.509803950786591,0.509803950786591,0.588235318660736);
#459=COLOUR_RGB('',0.509803950786591,0.509803950786591,0.588235318660736);
#460=DIRECTION('',(0.0,0.707106781186547,-0.707106781186548));
#461=DIRECTION('',(8.65956056235494E-017,-0.707106781186548,-0.707106781186547));
#462=CARTESIAN_POINT('',(0.0,0.0,0.0));
#463=DIRECTION('',(0.0,2.22044604929955E-016,1.0));
#464=DIRECTION('',(0.0,1.0,-2.22044604929955E-016));
#465=CARTESIAN_POINT('',(0.0,5.73985303731206E-014,5.00000000000011));
#466=DIRECTION('',(0.0,-2.22044604925031E-016,-1.0));
#467=DIRECTION('',(0.0,1.0,-2.22044604925031E-016));
#468=DIRECTION('',(0.0,-2.22044604925031E-016,-1.0));
#469=CARTESIAN_POINT('',(0.0,0.0,0.0));
#470=DIRECTION('',(0.0,-2.22044604925031E-016,-1.0));
#471=DIRECTION('',(0.0,1.0,-2.22044604925031E-016));
#472=DIRECTION('',(0.0,-2.22044604925031E-016,-1.0));
#473=CARTESIAN_POINT('',(0.0,5.72276783071369E-014,9.00000000000022));
#474=DIRECTION('',(0.0,-2.12291334472678E-016,-1.0));
#475=DIRECTION('',(0.0,1.0,-2.12291334472678E-016));
#476=DIRECTION('',(2.79374167613976E-017,-0.228126320020178,-0.973631543302728));
#477=CARTESIAN_POINT('',(0.0,5.63785129692462E-014,5.00000000000021));
#478=DIRECTION('',(0.0,-2.12291334472678E-016,-1.0));
#479=DIRECTION('',(0.0,1.0,-2.12291334472678E-016));
#480=DIRECTION('',(0.0,0.228126320020178,-0.973631543302728));
#481=CARTESIAN_POINT('',(0.0,5.67472707264888E-014,8.13397459621558));
#482=DIRECTION('',(0.0,2.65518899384206E-016,1.0));
#483=DIRECTION('',(0.0,-1.0,2.65518899384206E-016));
#484=DIRECTION('',(6.12323399573627E-017,0.499999999999959,0.866025403784462));
#485=CARTESIAN_POINT('',(0.0,5.72458747072346E-014,9.00000000000011));
#486=DIRECTION('',(0.0,-2.52629632423808E-016,-1.0));
#487=DIRECTION('',(0.0,-1.0,2.52629632423808E-016));
#488=DIRECTION('',(0.0,-0.499999999999959,0.866025403784462));
#489=DIRECTION('',(2.79374167614064E-017,-0.22812632002025,-0.973631543302711));
#490=CARTESIAN_POINT('',(0.0,5.63785129692462E-014,5.00000000000023));
#491=DIRECTION('',(0.0,2.47010630525507E-016,1.0));
#492=DIRECTION('',(0.0,1.0,-2.47010630525507E-016));
#493=DIRECTION('',(0.0,0.22812632002025,-0.973631543302711));
#494=CARTESIAN_POINT('',(0.0,5.63785129692462E-014,5.00000000000023));
#495=DIRECTION('',(0.0,2.47010630525507E-016,1.0));
#496=DIRECTION('',(0.0,1.0,-2.47010630525507E-016));
#497=CARTESIAN_POINT('',(0.0,5.67472707264888E-014,8.13397459621558));
#498=DIRECTION('',(0.0,2.65518899384206E-016,1.0));
#499=DIRECTION('',(0.0,-1.0,2.65518899384206E-016));
#500=CARTESIAN_POINT('',(0.0,5.72458747072346E-014,9.00000000000011));
#501=DIRECTION('',(0.0,-2.52629632423808E-016,-1.0));
#502=DIRECTION('',(0.0,-1.0,2.52629632423808E-016));
#503=CARTESIAN_POINT('',(0.0,5.72276783071369E-014,9.00000000000022));
#504=DIRECTION('',(0.0,-2.12291334472678E-016,-1.0));
#505=DIRECTION('',(0.0,1.0,-2.12291334472678E-016));
#506=CARTESIAN_POINT('',(0.0,5.63785129692462E-014,5.00000000000021));
#507=DIRECTION('',(0.0,-2.12291334472678E-016,-1.0));
#508=DIRECTION('',(0.0,1.0,-2.12291334472678E-016));
#509=CARTESIAN_POINT('',(0.0,5.73985303731206E-014,5.00000000000011));
#510=DIRECTION('',(0.0,-2.22044604925031E-016,-1.0));
#511=DIRECTION('',(0.0,1.0,-2.22044604925031E-016));
#512=CARTESIAN_POINT('',(0.0,0.0,0.0));
#513=DIRECTION('',(0.0,-2.22044604925031E-016,-1.0));
#514=DIRECTION('',(0.0,1.0,-2.22044604925031E-016));
#515=CARTESIAN_POINT('',(0.0,0.0,0.0));
#516=DIRECTION('',(0.0,2.22044604929955E-016,1.0));
#517=DIRECTION('',(0.0,1.0,-2.22044604929955E-016));
ENDSEC;
END-ISO-10303-21;
