ISO-10303-21;
HEADER;
FILE_DESCRIPTION(('STEP AP214'),'1');
FILE_NAME('cctmp_1402AD2E-FB24-4B24-A14E-D3C13FF7CC31_2021_5_27_18_47_42_214..stp','2021-05-27T16:47:42',('Bosch Rexroth AG'),('CADClick - www.CADClick.com'),'Spatial InterOp 3D',' ','unknown authorization - (Healing Option Enabled)');
FILE_SCHEMA(('AUTOMOTIVE_DESIGN'));
ENDSEC;
DATA;
#1=MECHANICAL_DESIGN_GEOMETRIC_PRESENTATION_REPRESENTATION(' ',(#10,#11,#12,#13,#14,#15,#16,#17,#18,#19,#20),#6);
#2=PRODUCT_DEFINITION_CONTEXT('',#21,'design');
#3=APPLICATION_PROTOCOL_DEFINITION('INTERNATIONAL STANDARD','automotive_design',1994,#21);
#4=PRODUCT_CATEGORY_RELATIONSHIP('NONE','NONE',#22,#23);
#5=SHAPE_DEFINITION_REPRESENTATION(#24,#25);
#6= (GEOMETRIC_REPRESENTATION_CONTEXT(3)GLOBAL_UNCERTAINTY_ASSIGNED_CONTEXT((#28))GLOBAL_UNIT_ASSIGNED_CONTEXT((#30,#31,#32))REPRESENTATION_CONTEXT('NONE','WORKSPACE'));
#10=STYLED_ITEM('',(#34),#35);
#11=STYLED_ITEM('',(#36),#37);
#12=STYLED_ITEM('',(#38),#39);
#13=STYLED_ITEM('',(#40),#41);
#14=STYLED_ITEM('',(#42),#43);
#15=STYLED_ITEM('',(#44),#45);
#16=STYLED_ITEM('',(#46),#47);
#17=STYLED_ITEM('',(#48),#49);
#18=STYLED_ITEM('',(#50),#51);
#19=STYLED_ITEM('',(#52),#53);
#20=STYLED_ITEM('',(#54),#55);
#21=APPLICATION_CONTEXT(' ');
#22=PRODUCT_CATEGORY('part','NONE');
#23=PRODUCT_RELATED_PRODUCT_CATEGORY('detail',' ',(#56));
#24=PRODUCT_DEFINITION_SHAPE('NONE','NONE',#57);
#25=ADVANCED_BREP_SHAPE_REPRESENTATION('2021_05_27__18-47-42-210',(#55,#58),#6);
#28=UNCERTAINTY_MEASURE_WITH_UNIT(LENGTH_MEASURE(1.0E-006),#30,'','');
#30= (CONVERSION_BASED_UNIT('MILLIMETRE',#61)LENGTH_UNIT()NAMED_UNIT(#64));
#31= (NAMED_UNIT(#66)PLANE_ANGLE_UNIT()SI_UNIT($,.RADIAN.));
#32= (NAMED_UNIT(#66)SOLID_ANGLE_UNIT()SI_UNIT($,.STERADIAN.));
#34=PRESENTATION_STYLE_ASSIGNMENT((#72));
#35=ADVANCED_FACE('',(#73),#74,.F.);
#36=PRESENTATION_STYLE_ASSIGNMENT((#75));
#37=ADVANCED_FACE('',(#76),#77,.T.);
#38=PRESENTATION_STYLE_ASSIGNMENT((#78));
#39=ADVANCED_FACE('',(#79),#80,.T.);
#40=PRESENTATION_STYLE_ASSIGNMENT((#81));
#41=ADVANCED_FACE('',(#82),#83,.T.);
#42=PRESENTATION_STYLE_ASSIGNMENT((#84));
#43=ADVANCED_FACE('',(#85),#86,.T.);
#44=PRESENTATION_STYLE_ASSIGNMENT((#87));
#45=ADVANCED_FACE('',(#88),#89,.T.);
#46=PRESENTATION_STYLE_ASSIGNMENT((#90));
#47=ADVANCED_FACE('',(#91),#92,.T.);
#48=PRESENTATION_STYLE_ASSIGNMENT((#93));
#49=ADVANCED_FACE('',(#94),#95,.T.);
#50=PRESENTATION_STYLE_ASSIGNMENT((#96));
#51=ADVANCED_FACE('',(#97),#98,.T.);
#52=PRESENTATION_STYLE_ASSIGNMENT((#99));
#53=ADVANCED_FACE('',(#100),#101,.T.);
#54=PRESENTATION_STYLE_ASSIGNMENT((#102));
#55=MANIFOLD_SOLID_BREP('2021_05_27__18-47-42-210',#103);
#56=PRODUCT('2021_05_27__18-47-42-210','','PART--DESC',(#104));
#57=PRODUCT_DEFINITION('','NONE',#105,#2);
#58=AXIS2_PLACEMENT_3D('',#106,#107,#108);
#61=LENGTH_MEASURE_WITH_UNIT(LENGTH_MEASURE(1.0),#109);
#64=DIMENSIONAL_EXPONENTS(1.0,0.0,0.0,0.0,0.0,0.0,0.0);
#66=DIMENSIONAL_EXPONENTS(0.0,0.0,0.0,0.0,0.0,0.0,0.0);
#72=SURFACE_STYLE_USAGE(.BOTH.,#110);
#73=FACE_OUTER_BOUND('',#111,.T.);
#74=PLANE('',#112);
#75=SURFACE_STYLE_USAGE(.BOTH.,#113);
#76=FACE_OUTER_BOUND('',#114,.T.);
#77=PLANE('',#115);
#78=SURFACE_STYLE_USAGE(.BOTH.,#116);
#79=FACE_OUTER_BOUND('',#117,.T.);
#80=PLANE('',#118);
#81=SURFACE_STYLE_USAGE(.BOTH.,#119);
#82=FACE_OUTER_BOUND('',#120,.T.);
#83=PLANE('',#121);
#84=SURFACE_STYLE_USAGE(.BOTH.,#122);
#85=FACE_OUTER_BOUND('',#123,.T.);
#86=PLANE('',#124);
#87=SURFACE_STYLE_USAGE(.BOTH.,#125);
#88=FACE_OUTER_BOUND('',#126,.T.);
#89=PLANE('',#127);
#90=SURFACE_STYLE_USAGE(.BOTH.,#128);
#91=FACE_OUTER_BOUND('',#129,.T.);
#92=PLANE('',#130);
#93=SURFACE_STYLE_USAGE(.BOTH.,#131);
#94=FACE_OUTER_BOUND('',#132,.T.);
#95=PLANE('',#133);
#96=SURFACE_STYLE_USAGE(.BOTH.,#134);
#97=FACE_OUTER_BOUND('',#135,.T.);
#98=PLANE('',#136);
#99=SURFACE_STYLE_USAGE(.BOTH.,#137);
#100=FACE_OUTER_BOUND('',#138,.T.);
#101=PLANE('',#139);
#102=SURFACE_STYLE_USAGE(.BOTH.,#140);
#103=CLOSED_SHELL('',(#35,#37,#39,#41,#43,#45,#47,#49,#51,#53));
#104=PRODUCT_CONTEXT('',#21,'mechanical');
#105=PRODUCT_DEFINITION_FORMATION_WITH_SPECIFIED_SOURCE(' ','NONE',#56,.NOT_KNOWN.);
#106=CARTESIAN_POINT('',(0.0,0.0,0.0));
#107=DIRECTION('',(0.0,0.0,1.0));
#108=DIRECTION('',(1.0,0.0,0.0));
#109= (NAMED_UNIT(#64)LENGTH_UNIT()SI_UNIT(.MILLI.,.METRE.));
#110=SURFACE_SIDE_STYLE('',(#142));
#111=EDGE_LOOP('',(#143,#144,#145,#146,#147,#148,#149,#150));
#112=AXIS2_PLACEMENT_3D('',#151,#152,#153);
#113=SURFACE_SIDE_STYLE('',(#154));
#114=EDGE_LOOP('',(#155,#156,#157,#158));
#115=AXIS2_PLACEMENT_3D('',#159,#160,#161);
#116=SURFACE_SIDE_STYLE('',(#162));
#117=EDGE_LOOP('',(#163,#164,#165,#166));
#118=AXIS2_PLACEMENT_3D('',#167,#168,#169);
#119=SURFACE_SIDE_STYLE('',(#170));
#120=EDGE_LOOP('',(#171,#172,#173,#174));
#121=AXIS2_PLACEMENT_3D('',#175,#176,#177);
#122=SURFACE_SIDE_STYLE('',(#178));
#123=EDGE_LOOP('',(#179,#180,#181,#182));
#124=AXIS2_PLACEMENT_3D('',#183,#184,#185);
#125=SURFACE_SIDE_STYLE('',(#186));
#126=EDGE_LOOP('',(#187,#188,#189,#190));
#127=AXIS2_PLACEMENT_3D('',#191,#192,#193);
#128=SURFACE_SIDE_STYLE('',(#194));
#129=EDGE_LOOP('',(#195,#196,#197,#198));
#130=AXIS2_PLACEMENT_3D('',#199,#200,#201);
#131=SURFACE_SIDE_STYLE('',(#202));
#132=EDGE_LOOP('',(#203,#204,#205,#206));
#133=AXIS2_PLACEMENT_3D('',#207,#208,#209);
#134=SURFACE_SIDE_STYLE('',(#210));
#135=EDGE_LOOP('',(#211,#212,#213,#214));
#136=AXIS2_PLACEMENT_3D('',#215,#216,#217);
#137=SURFACE_SIDE_STYLE('',(#218));
#138=EDGE_LOOP('',(#219,#220,#221,#222,#223,#224,#225,#226));
#139=AXIS2_PLACEMENT_3D('',#227,#228,#229);
#140=SURFACE_SIDE_STYLE('',(#230));
#142=SURFACE_STYLE_FILL_AREA(#231);
#143=ORIENTED_EDGE('',*,*,#232,.F.);
#144=ORIENTED_EDGE('',*,*,#233,.F.);
#145=ORIENTED_EDGE('',*,*,#234,.F.);
#146=ORIENTED_EDGE('',*,*,#235,.F.);
#147=ORIENTED_EDGE('',*,*,#236,.F.);
#148=ORIENTED_EDGE('',*,*,#237,.F.);
#149=ORIENTED_EDGE('',*,*,#238,.F.);
#150=ORIENTED_EDGE('',*,*,#239,.F.);
#151=CARTESIAN_POINT('',(0.0,6.42680532485619,-3.108624E-015));
#152=DIRECTION('',(1.0,0.0,0.0));
#153=DIRECTION('',(0.0,1.0,-0.0));
#154=SURFACE_STYLE_FILL_AREA(#240);
#155=ORIENTED_EDGE('',*,*,#241,.F.);
#156=ORIENTED_EDGE('',*,*,#242,.F.);
#157=ORIENTED_EDGE('',*,*,#243,.T.);
#158=ORIENTED_EDGE('',*,*,#232,.T.);
#159=CARTESIAN_POINT('',(3000.0,2.25,-9.75650060451596));
#160=DIRECTION('',(0.0,-0.169349503849025,-0.985556059058078));
#161=DIRECTION('',(0.0,-0.985556059058078,0.169349503849025));
#162=SURFACE_STYLE_FILL_AREA(#244);
#163=ORIENTED_EDGE('',*,*,#245,.F.);
#164=ORIENTED_EDGE('',*,*,#246,.F.);
#165=ORIENTED_EDGE('',*,*,#241,.T.);
#166=ORIENTED_EDGE('',*,*,#239,.T.);
#167=CARTESIAN_POINT('',(3000.0,8.25,-10.7874891654967));
#168=DIRECTION('',(0.0,1.0,0.0));
#169=DIRECTION('',(1.0,0.0,-0.0));
#170=SURFACE_STYLE_FILL_AREA(#247);
#171=ORIENTED_EDGE('',*,*,#248,.F.);
#172=ORIENTED_EDGE('',*,*,#249,.F.);
#173=ORIENTED_EDGE('',*,*,#245,.T.);
#174=ORIENTED_EDGE('',*,*,#238,.T.);
#175=CARTESIAN_POINT('',(3000.0,8.25,10.7874891654967));
#176=DIRECTION('',(0.0,-0.169349503849024,0.985556059058078));
#177=DIRECTION('',(-1.0,0.0,0.0));
#178=SURFACE_STYLE_FILL_AREA(#250);
#179=ORIENTED_EDGE('',*,*,#251,.F.);
#180=ORIENTED_EDGE('',*,*,#252,.F.);
#181=ORIENTED_EDGE('',*,*,#248,.T.);
#182=ORIENTED_EDGE('',*,*,#237,.T.);
#183=CARTESIAN_POINT('',(3000.0,2.25,9.75650060451595));
#184=DIRECTION('',(0.0,-1.0,0.0));
#185=DIRECTION('',(0.0,0.0,-1.0));
#186=SURFACE_STYLE_FILL_AREA(#253);
#187=ORIENTED_EDGE('',*,*,#254,.F.);
#188=ORIENTED_EDGE('',*,*,#255,.F.);
#189=ORIENTED_EDGE('',*,*,#251,.T.);
#190=ORIENTED_EDGE('',*,*,#236,.T.);
#191=CARTESIAN_POINT('',(3000.0,2.25000000000002,8.17675857926444));
#192=DIRECTION('',(0.0,0.169349503849027,-0.985556059058077));
#193=DIRECTION('',(-1.0,0.0,0.0));
#194=SURFACE_STYLE_FILL_AREA(#256);
#195=ORIENTED_EDGE('',*,*,#257,.F.);
#196=ORIENTED_EDGE('',*,*,#258,.F.);
#197=ORIENTED_EDGE('',*,*,#254,.T.);
#198=ORIENTED_EDGE('',*,*,#235,.T.);
#199=CARTESIAN_POINT('',(3000.0,6.75,8.95000000000001));
#200=DIRECTION('',(0.0,-1.0,0.0));
#201=DIRECTION('',(0.0,0.0,-1.0));
#202=SURFACE_STYLE_FILL_AREA(#259);
#203=ORIENTED_EDGE('',*,*,#260,.F.);
#204=ORIENTED_EDGE('',*,*,#261,.F.);
#205=ORIENTED_EDGE('',*,*,#257,.T.);
#206=ORIENTED_EDGE('',*,*,#234,.T.);
#207=CARTESIAN_POINT('',(3000.0,6.75,-8.95));
#208=DIRECTION('',(0.0,0.169349503849023,0.985556059058078));
#209=DIRECTION('',(1.0,-0.0,0.0));
#210=SURFACE_STYLE_FILL_AREA(#262);
#211=ORIENTED_EDGE('',*,*,#243,.F.);
#212=ORIENTED_EDGE('',*,*,#263,.F.);
#213=ORIENTED_EDGE('',*,*,#260,.T.);
#214=ORIENTED_EDGE('',*,*,#233,.T.);
#215=CARTESIAN_POINT('',(3000.0,2.25,-8.17675857926444));
#216=DIRECTION('',(0.0,-1.0,0.0));
#217=DIRECTION('',(0.0,0.0,-1.0));
#218=SURFACE_STYLE_FILL_AREA(#264);
#219=ORIENTED_EDGE('',*,*,#263,.T.);
#220=ORIENTED_EDGE('',*,*,#242,.T.);
#221=ORIENTED_EDGE('',*,*,#246,.T.);
#222=ORIENTED_EDGE('',*,*,#249,.T.);
#223=ORIENTED_EDGE('',*,*,#252,.T.);
#224=ORIENTED_EDGE('',*,*,#255,.T.);
#225=ORIENTED_EDGE('',*,*,#258,.T.);
#226=ORIENTED_EDGE('',*,*,#261,.T.);
#227=CARTESIAN_POINT('',(3000.0,6.42680532485619,-3.108624E-015));
#228=DIRECTION('',(1.0,0.0,0.0));
#229=DIRECTION('',(0.0,1.0,-0.0));
#230=SURFACE_STYLE_FILL_AREA(#265);
#231=FILL_AREA_STYLE('',(#266));
#232=EDGE_CURVE('',#267,#268,#269,.T.);
#233=EDGE_CURVE('',#270,#267,#271,.T.);
#234=EDGE_CURVE('',#272,#270,#273,.T.);
#235=EDGE_CURVE('',#274,#272,#275,.T.);
#236=EDGE_CURVE('',#276,#274,#277,.T.);
#237=EDGE_CURVE('',#278,#276,#279,.T.);
#238=EDGE_CURVE('',#280,#278,#281,.T.);
#239=EDGE_CURVE('',#268,#280,#282,.T.);
#240=FILL_AREA_STYLE('',(#283));
#241=EDGE_CURVE('',#284,#268,#285,.T.);
#242=EDGE_CURVE('',#286,#284,#287,.T.);
#243=EDGE_CURVE('',#286,#267,#288,.T.);
#244=FILL_AREA_STYLE('',(#289));
#245=EDGE_CURVE('',#290,#280,#291,.T.);
#246=EDGE_CURVE('',#284,#290,#292,.T.);
#247=FILL_AREA_STYLE('',(#293));
#248=EDGE_CURVE('',#294,#278,#295,.T.);
#249=EDGE_CURVE('',#290,#294,#296,.T.);
#250=FILL_AREA_STYLE('',(#297));
#251=EDGE_CURVE('',#298,#276,#299,.T.);
#252=EDGE_CURVE('',#294,#298,#300,.T.);
#253=FILL_AREA_STYLE('',(#301));
#254=EDGE_CURVE('',#302,#274,#303,.T.);
#255=EDGE_CURVE('',#298,#302,#304,.T.);
#256=FILL_AREA_STYLE('',(#305));
#257=EDGE_CURVE('',#306,#272,#307,.T.);
#258=EDGE_CURVE('',#302,#306,#308,.T.);
#259=FILL_AREA_STYLE('',(#309));
#260=EDGE_CURVE('',#310,#270,#311,.T.);
#261=EDGE_CURVE('',#306,#310,#312,.T.);
#262=FILL_AREA_STYLE('',(#313));
#263=EDGE_CURVE('',#310,#286,#314,.T.);
#264=FILL_AREA_STYLE('',(#315));
#265=FILL_AREA_STYLE('',(#316));
#266=FILL_AREA_STYLE_COLOUR('',#317);
#267=VERTEX_POINT('',#318);
#268=VERTEX_POINT('',#319);
#269=LINE('',#320,#321);
#270=VERTEX_POINT('',#322);
#271=LINE('',#323,#324);
#272=VERTEX_POINT('',#325);
#273=LINE('',#326,#327);
#274=VERTEX_POINT('',#328);
#275=LINE('',#329,#330);
#276=VERTEX_POINT('',#331);
#277=LINE('',#332,#333);
#278=VERTEX_POINT('',#334);
#279=LINE('',#335,#336);
#280=VERTEX_POINT('',#337);
#281=LINE('',#338,#339);
#282=LINE('',#340,#341);
#283=FILL_AREA_STYLE_COLOUR('',#342);
#284=VERTEX_POINT('',#343);
#285=LINE('',#344,#345);
#286=VERTEX_POINT('',#346);
#287=LINE('',#347,#348);
#288=LINE('',#349,#350);
#289=FILL_AREA_STYLE_COLOUR('',#351);
#290=VERTEX_POINT('',#352);
#291=LINE('',#353,#354);
#292=LINE('',#355,#356);
#293=FILL_AREA_STYLE_COLOUR('',#357);
#294=VERTEX_POINT('',#358);
#295=LINE('',#359,#360);
#296=LINE('',#361,#362);
#297=FILL_AREA_STYLE_COLOUR('',#363);
#298=VERTEX_POINT('',#364);
#299=LINE('',#365,#366);
#300=LINE('',#367,#368);
#301=FILL_AREA_STYLE_COLOUR('',#369);
#302=VERTEX_POINT('',#370);
#303=LINE('',#371,#372);
#304=LINE('',#373,#374);
#305=FILL_AREA_STYLE_COLOUR('',#375);
#306=VERTEX_POINT('',#376);
#307=LINE('',#377,#378);
#308=LINE('',#379,#380);
#309=FILL_AREA_STYLE_COLOUR('',#381);
#310=VERTEX_POINT('',#382);
#311=LINE('',#383,#384);
#312=LINE('',#385,#386);
#313=FILL_AREA_STYLE_COLOUR('',#387);
#314=LINE('',#388,#389);
#315=FILL_AREA_STYLE_COLOUR('',#390);
#316=FILL_AREA_STYLE_COLOUR('',#391);
#317=COLOUR_RGB('',0.752941191196442,0.752941191196442,0.752941191196442);
#318=CARTESIAN_POINT('',(0.0,2.25,-9.75650060451596));
#319=CARTESIAN_POINT('',(0.0,8.25,-10.7874891654967));
#320=CARTESIAN_POINT('',(0.0,2.25,-9.75650060451596));
#321=VECTOR('',#392,6.08793375562458);
#322=CARTESIAN_POINT('',(0.0,2.25,-8.17675857926444));
#323=CARTESIAN_POINT('',(0.0,2.25,-8.17675857926444));
#324=VECTOR('',#393,1.57974202525152);
#325=CARTESIAN_POINT('',(0.0,6.75,-8.95));
#326=CARTESIAN_POINT('',(0.0,6.75,-8.95));
#327=VECTOR('',#394,4.56595031671843);
#328=CARTESIAN_POINT('',(0.0,6.75,8.95000000000001));
#329=CARTESIAN_POINT('',(0.0,6.75,8.95000000000001));
#330=VECTOR('',#395,17.9);
#331=CARTESIAN_POINT('',(0.0,2.25000000000002,8.17675857926444));
#332=CARTESIAN_POINT('',(0.0,2.25000000000002,8.17675857926444));
#333=VECTOR('',#396,4.56595031671842);
#334=CARTESIAN_POINT('',(0.0,2.25,9.75650060451595));
#335=CARTESIAN_POINT('',(0.0,2.25,9.75650060451595));
#336=VECTOR('',#397,1.57974202525151);
#337=CARTESIAN_POINT('',(0.0,8.25,10.7874891654967));
#338=CARTESIAN_POINT('',(0.0,8.25,10.7874891654967));
#339=VECTOR('',#398,6.08793375562458);
#340=CARTESIAN_POINT('',(0.0,8.25,-10.7874891654967));
#341=VECTOR('',#399,21.5749783309934);
#342=COLOUR_RGB('',0.752941191196442,0.752941191196442,0.752941191196442);
#343=CARTESIAN_POINT('',(3000.0,8.25,-10.7874891654967));
#344=CARTESIAN_POINT('',(3000.0,8.25,-10.7874891654967));
#345=VECTOR('',#400,3000.0);
#346=CARTESIAN_POINT('',(3000.0,2.25,-9.75650060451596));
#347=CARTESIAN_POINT('',(3000.0,2.25,-9.75650060451596));
#348=VECTOR('',#401,6.08793375562458);
#349=CARTESIAN_POINT('',(3000.0,2.25,-9.75650060451596));
#350=VECTOR('',#402,3000.0);
#351=COLOUR_RGB('',0.752941191196442,0.752941191196442,0.752941191196442);
#352=CARTESIAN_POINT('',(3000.0,8.25,10.7874891654967));
#353=CARTESIAN_POINT('',(3000.0,8.25,10.7874891654967));
#354=VECTOR('',#403,3000.0);
#355=CARTESIAN_POINT('',(3000.0,8.25,-10.7874891654967));
#356=VECTOR('',#404,21.5749783309934);
#357=COLOUR_RGB('',0.752941191196442,0.752941191196442,0.752941191196442);
#358=CARTESIAN_POINT('',(3000.0,2.25,9.75650060451595));
#359=CARTESIAN_POINT('',(3000.0,2.25,9.75650060451595));
#360=VECTOR('',#405,3000.0);
#361=CARTESIAN_POINT('',(3000.0,8.25,10.7874891654967));
#362=VECTOR('',#406,6.08793375562458);
#363=COLOUR_RGB('',0.752941191196442,0.752941191196442,0.752941191196442);
#364=CARTESIAN_POINT('',(3000.0,2.25000000000002,8.17675857926444));
#365=CARTESIAN_POINT('',(3000.0,2.25000000000002,8.17675857926444));
#366=VECTOR('',#407,3000.0);
#367=CARTESIAN_POINT('',(3000.0,2.25,9.75650060451595));
#368=VECTOR('',#408,1.57974202525151);
#369=COLOUR_RGB('',0.752941191196442,0.752941191196442,0.752941191196442);
#370=CARTESIAN_POINT('',(3000.0,6.75,8.95000000000001));
#371=CARTESIAN_POINT('',(3000.0,6.75,8.95000000000001));
#372=VECTOR('',#409,3000.0);
#373=CARTESIAN_POINT('',(3000.0,2.25000000000002,8.17675857926444));
#374=VECTOR('',#410,4.56595031671842);
#375=COLOUR_RGB('',0.752941191196442,0.752941191196442,0.752941191196442);
#376=CARTESIAN_POINT('',(3000.0,6.75,-8.95));
#377=CARTESIAN_POINT('',(3000.0,6.75,-8.95));
#378=VECTOR('',#411,3000.0);
#379=CARTESIAN_POINT('',(3000.0,6.75,8.95000000000001));
#380=VECTOR('',#412,17.9);
#381=COLOUR_RGB('',0.752941191196442,0.752941191196442,0.752941191196442);
#382=CARTESIAN_POINT('',(3000.0,2.25,-8.17675857926444));
#383=CARTESIAN_POINT('',(3000.0,2.25,-8.17675857926444));
#384=VECTOR('',#413,3000.0);
#385=CARTESIAN_POINT('',(3000.0,6.75,-8.95));
#386=VECTOR('',#414,4.56595031671843);
#387=COLOUR_RGB('',0.752941191196442,0.752941191196442,0.752941191196442);
#388=CARTESIAN_POINT('',(3000.0,2.25,-8.17675857926444));
#389=VECTOR('',#415,1.57974202525152);
#390=COLOUR_RGB('',0.752941191196442,0.752941191196442,0.752941191196442);
#391=COLOUR_RGB('',0.752941012382507,0.752941012382507,0.752941012382507);
#392=DIRECTION('',(0.0,0.985556059058078,-0.169349503849024));
#393=DIRECTION('',(0.0,0.0,-1.0));
#394=DIRECTION('',(0.0,-0.985556059058078,0.169349503849023));
#395=DIRECTION('',(0.0,0.0,-1.0));
#396=DIRECTION('',(0.0,0.985556059058077,0.169349503849027));
#397=DIRECTION('',(0.0,0.0,-1.0));
#398=DIRECTION('',(0.0,-0.985556059058078,-0.169349503849024));
#399=DIRECTION('',(0.0,0.0,1.0));
#400=DIRECTION('',(-1.0,0.0,0.0));
#401=DIRECTION('',(0.0,0.985556059058078,-0.169349503849024));
#402=DIRECTION('',(-1.0,0.0,0.0));
#403=DIRECTION('',(-1.0,0.0,0.0));
#404=DIRECTION('',(0.0,0.0,1.0));
#405=DIRECTION('',(-1.0,0.0,0.0));
#406=DIRECTION('',(0.0,-0.985556059058078,-0.169349503849024));
#407=DIRECTION('',(-1.0,0.0,0.0));
#408=DIRECTION('',(0.0,0.0,-1.0));
#409=DIRECTION('',(-1.0,0.0,0.0));
#410=DIRECTION('',(0.0,0.985556059058077,0.169349503849027));
#411=DIRECTION('',(-1.0,0.0,0.0));
#412=DIRECTION('',(0.0,0.0,-1.0));
#413=DIRECTION('',(-1.0,0.0,0.0));
#414=DIRECTION('',(0.0,-0.985556059058078,0.169349503849023));
#415=DIRECTION('',(0.0,0.0,-1.0));
ENDSEC;
END-ISO-10303-21;
