ISO-10303-21;
HEADER;
FILE_DESCRIPTION(('STEP AP214'),'1');
FILE_NAME('cctmp_D1186CF5-3B2E-40AC-B29F-A9B5E0B55A08_2020_1_15_8_27_20_629..stp','2020-01-15T07:27:20',('Bosch Rexroth AG'),('CADClick - www.CADClick.com'),'Spatial InterOp 3D',' ','unknown authorization - (Healing Option Enabled)');
FILE_SCHEMA(('AUTOMOTIVE_DESIGN'));
ENDSEC;
DATA;
#1=MECHANICAL_DESIGN_GEOMETRIC_PRESENTATION_REPRESENTATION(' ',(#10,#11,#12,#13,#14,#15,#16,#17,#18),#6);
#2=PRODUCT_DEFINITION_CONTEXT('',#19,'design');
#3=APPLICATION_PROTOCOL_DEFINITION('INTERNATIONAL STANDARD','automotive_design',1994,#19);
#4=PRODUCT_CATEGORY_RELATIONSHIP('NONE','NONE',#20,#21);
#5=SHAPE_DEFINITION_REPRESENTATION(#22,#23);
#6= (GEOMETRIC_REPRESENTATION_CONTEXT(3)GLOBAL_UNCERTAINTY_ASSIGNED_CONTEXT((#26))GLOBAL_UNIT_ASSIGNED_CONTEXT((#28,#29,#30))REPRESENTATION_CONTEXT('NONE','WORKSPACE'));
#10=STYLED_ITEM('',(#32),#33);
#11=STYLED_ITEM('',(#34),#35);
#12=STYLED_ITEM('',(#36),#37);
#13=STYLED_ITEM('',(#38),#39);
#14=STYLED_ITEM('',(#40),#41);
#15=STYLED_ITEM('',(#42),#43);
#16=STYLED_ITEM('',(#44),#45);
#17=STYLED_ITEM('',(#46),#47);
#18=STYLED_ITEM('',(#48),#49);
#19=APPLICATION_CONTEXT(' ');
#20=PRODUCT_CATEGORY('part','NONE');
#21=PRODUCT_RELATED_PRODUCT_CATEGORY('detail',' ',(#50));
#22=PRODUCT_DEFINITION_SHAPE('NONE','NONE',#51);
#23=ADVANCED_BREP_SHAPE_REPRESENTATION('2020_01_15__08-27-20-629',(#49,#52),#6);
#26=UNCERTAINTY_MEASURE_WITH_UNIT(LENGTH_MEASURE(1.0E-006),#28,'','');
#28= (CONVERSION_BASED_UNIT('MILLIMETRE',#55)LENGTH_UNIT()NAMED_UNIT(#58));
#29= (NAMED_UNIT(#60)PLANE_ANGLE_UNIT()SI_UNIT($,.RADIAN.));
#30= (NAMED_UNIT(#60)SOLID_ANGLE_UNIT()SI_UNIT($,.STERADIAN.));
#32=PRESENTATION_STYLE_ASSIGNMENT((#66));
#33=ADVANCED_FACE('',(#67),#68,.F.);
#34=PRESENTATION_STYLE_ASSIGNMENT((#69));
#35=ADVANCED_FACE('',(#70),#71,.T.);
#36=PRESENTATION_STYLE_ASSIGNMENT((#72));
#37=ADVANCED_FACE('',(#73),#74,.T.);
#38=PRESENTATION_STYLE_ASSIGNMENT((#75));
#39=ADVANCED_FACE('',(#76),#77,.T.);
#40=PRESENTATION_STYLE_ASSIGNMENT((#78));
#41=ADVANCED_FACE('',(#79),#80,.T.);
#42=PRESENTATION_STYLE_ASSIGNMENT((#81));
#43=ADVANCED_FACE('',(#82),#83,.T.);
#44=PRESENTATION_STYLE_ASSIGNMENT((#84));
#45=ADVANCED_FACE('',(#85),#86,.T.);
#46=PRESENTATION_STYLE_ASSIGNMENT((#87));
#47=ADVANCED_FACE('',(#88),#89,.T.);
#48=PRESENTATION_STYLE_ASSIGNMENT((#90));
#49=MANIFOLD_SOLID_BREP('2020_01_15__08-27-20-629',#91);
#50=PRODUCT('2020_01_15__08-27-20-629','','PART--DESC',(#92));
#51=PRODUCT_DEFINITION('','NONE',#93,#2);
#52=AXIS2_PLACEMENT_3D('',#94,#95,#96);
#55=LENGTH_MEASURE_WITH_UNIT(LENGTH_MEASURE(1.0),#97);
#58=DIMENSIONAL_EXPONENTS(1.0,0.0,0.0,0.0,0.0,0.0,0.0);
#60=DIMENSIONAL_EXPONENTS(0.0,0.0,0.0,0.0,0.0,0.0,0.0);
#66=SURFACE_STYLE_USAGE(.BOTH.,#98);
#67=FACE_OUTER_BOUND('',#99,.T.);
#68=PLANE('',#100);
#69=SURFACE_STYLE_USAGE(.BOTH.,#101);
#70=FACE_OUTER_BOUND('',#102,.T.);
#71=PLANE('',#103);
#72=SURFACE_STYLE_USAGE(.BOTH.,#104);
#73=FACE_OUTER_BOUND('',#105,.T.);
#74=PLANE('',#106);
#75=SURFACE_STYLE_USAGE(.BOTH.,#107);
#76=FACE_OUTER_BOUND('',#108,.T.);
#77=PLANE('',#109);
#78=SURFACE_STYLE_USAGE(.BOTH.,#110);
#79=FACE_OUTER_BOUND('',#111,.T.);
#80=PLANE('',#112);
#81=SURFACE_STYLE_USAGE(.BOTH.,#113);
#82=FACE_OUTER_BOUND('',#114,.T.);
#83=PLANE('',#115);
#84=SURFACE_STYLE_USAGE(.BOTH.,#116);
#85=FACE_OUTER_BOUND('',#117,.T.);
#86=PLANE('',#118);
#87=SURFACE_STYLE_USAGE(.BOTH.,#119);
#88=FACE_OUTER_BOUND('',#120,.T.);
#89=PLANE('',#121);
#90=SURFACE_STYLE_USAGE(.BOTH.,#122);
#91=CLOSED_SHELL('',(#33,#35,#37,#39,#41,#43,#45,#47));
#92=PRODUCT_CONTEXT('',#19,'mechanical');
#93=PRODUCT_DEFINITION_FORMATION_WITH_SPECIFIED_SOURCE(' ','NONE',#50,.NOT_KNOWN.);
#94=CARTESIAN_POINT('',(0.0,0.0,0.0));
#95=DIRECTION('',(0.0,0.0,1.0));
#96=DIRECTION('',(1.0,0.0,0.0));
#97= (NAMED_UNIT(#58)LENGTH_UNIT()SI_UNIT(.MILLI.,.METRE.));
#98=SURFACE_SIDE_STYLE('',(#124));
#99=EDGE_LOOP('',(#125,#126,#127,#128,#129,#130));
#100=AXIS2_PLACEMENT_3D('',#131,#132,#133);
#101=SURFACE_SIDE_STYLE('',(#134));
#102=EDGE_LOOP('',(#135,#136,#137,#138));
#103=AXIS2_PLACEMENT_3D('',#139,#140,#141);
#104=SURFACE_SIDE_STYLE('',(#142));
#105=EDGE_LOOP('',(#143,#144,#145,#146));
#106=AXIS2_PLACEMENT_3D('',#147,#148,#149);
#107=SURFACE_SIDE_STYLE('',(#150));
#108=EDGE_LOOP('',(#151,#152,#153,#154));
#109=AXIS2_PLACEMENT_3D('',#155,#156,#157);
#110=SURFACE_SIDE_STYLE('',(#158));
#111=EDGE_LOOP('',(#159,#160,#161,#162));
#112=AXIS2_PLACEMENT_3D('',#163,#164,#165);
#113=SURFACE_SIDE_STYLE('',(#166));
#114=EDGE_LOOP('',(#167,#168,#169,#170));
#115=AXIS2_PLACEMENT_3D('',#171,#172,#173);
#116=SURFACE_SIDE_STYLE('',(#174));
#117=EDGE_LOOP('',(#175,#176,#177,#178));
#118=AXIS2_PLACEMENT_3D('',#179,#180,#181);
#119=SURFACE_SIDE_STYLE('',(#182));
#120=EDGE_LOOP('',(#183,#184,#185,#186,#187,#188));
#121=AXIS2_PLACEMENT_3D('',#189,#190,#191);
#122=SURFACE_SIDE_STYLE('',(#192));
#124=SURFACE_STYLE_FILL_AREA(#193);
#125=ORIENTED_EDGE('',*,*,#194,.F.);
#126=ORIENTED_EDGE('',*,*,#195,.F.);
#127=ORIENTED_EDGE('',*,*,#196,.F.);
#128=ORIENTED_EDGE('',*,*,#197,.F.);
#129=ORIENTED_EDGE('',*,*,#198,.F.);
#130=ORIENTED_EDGE('',*,*,#199,.F.);
#131=CARTESIAN_POINT('',(0.0,0.0,0.0));
#132=DIRECTION('',(1.0,0.0,0.0));
#133=DIRECTION('',(0.0,1.0,-0.0));
#134=SURFACE_STYLE_FILL_AREA(#200);
#135=ORIENTED_EDGE('',*,*,#201,.T.);
#136=ORIENTED_EDGE('',*,*,#202,.F.);
#137=ORIENTED_EDGE('',*,*,#203,.F.);
#138=ORIENTED_EDGE('',*,*,#199,.T.);
#139=CARTESIAN_POINT('',(-1.239914E-015,-6.75,-8.95));
#140=DIRECTION('',(3.110797E-017,0.169349503849026,-0.985556059058078));
#141=DIRECTION('',(-1.0,0.0,-3.15638767719928E-017));
#142=SURFACE_STYLE_FILL_AREA(#204);
#143=ORIENTED_EDGE('',*,*,#203,.T.);
#144=ORIENTED_EDGE('',*,*,#205,.F.);
#145=ORIENTED_EDGE('',*,*,#206,.F.);
#146=ORIENTED_EDGE('',*,*,#194,.T.);
#147=CARTESIAN_POINT('',(-1.239914E-015,-6.75,8.95));
#148=DIRECTION('',(0.0,-1.0,0.0));
#149=DIRECTION('',(0.0,0.0,-1.0));
#150=SURFACE_STYLE_FILL_AREA(#207);
#151=ORIENTED_EDGE('',*,*,#206,.T.);
#152=ORIENTED_EDGE('',*,*,#208,.F.);
#153=ORIENTED_EDGE('',*,*,#209,.F.);
#154=ORIENTED_EDGE('',*,*,#195,.T.);
#155=CARTESIAN_POINT('',(0.0,0.0,7.79013786889666));
#156=DIRECTION('',(3.110797E-017,0.169349503849024,0.985556059058078));
#157=DIRECTION('',(1.0,-1.83690942653915E-016,0.0));
#158=SURFACE_STYLE_FILL_AREA(#210);
#159=ORIENTED_EDGE('',*,*,#209,.T.);
#160=ORIENTED_EDGE('',*,*,#211,.F.);
#161=ORIENTED_EDGE('',*,*,#212,.F.);
#162=ORIENTED_EDGE('',*,*,#196,.T.);
#163=CARTESIAN_POINT('',(1.239914E-015,6.75,8.95));
#164=DIRECTION('',(-3.110797E-017,-0.169349503849025,0.985556059058078));
#165=DIRECTION('',(-1.0,1.83690942653914E-016,0.0));
#166=SURFACE_STYLE_FILL_AREA(#213);
#167=ORIENTED_EDGE('',*,*,#212,.T.);
#168=ORIENTED_EDGE('',*,*,#214,.F.);
#169=ORIENTED_EDGE('',*,*,#215,.F.);
#170=ORIENTED_EDGE('',*,*,#197,.T.);
#171=CARTESIAN_POINT('',(1.239914E-015,6.75,-8.95));
#172=DIRECTION('',(0.0,1.0,0.0));
#173=DIRECTION('',(1.0,0.0,-0.0));
#174=SURFACE_STYLE_FILL_AREA(#216);
#175=ORIENTED_EDGE('',*,*,#215,.T.);
#176=ORIENTED_EDGE('',*,*,#217,.F.);
#177=ORIENTED_EDGE('',*,*,#201,.F.);
#178=ORIENTED_EDGE('',*,*,#198,.T.);
#179=CARTESIAN_POINT('',(0.0,0.0,-7.79013786889665));
#180=DIRECTION('',(-3.110797E-017,-0.169349503849025,-0.985556059058078));
#181=DIRECTION('',(0.0,-0.985556059058078,0.169349503849025));
#182=SURFACE_STYLE_FILL_AREA(#218);
#183=ORIENTED_EDGE('',*,*,#217,.T.);
#184=ORIENTED_EDGE('',*,*,#214,.T.);
#185=ORIENTED_EDGE('',*,*,#211,.T.);
#186=ORIENTED_EDGE('',*,*,#208,.T.);
#187=ORIENTED_EDGE('',*,*,#205,.T.);
#188=ORIENTED_EDGE('',*,*,#202,.T.);
#189=CARTESIAN_POINT('',(2.0,-3.673819E-016,0.0));
#190=DIRECTION('',(1.0,0.0,0.0));
#191=DIRECTION('',(0.0,1.0,-0.0));
#192=SURFACE_STYLE_FILL_AREA(#219);
#193=FILL_AREA_STYLE('',(#220));
#194=EDGE_CURVE('',#221,#222,#223,.T.);
#195=EDGE_CURVE('',#224,#221,#225,.T.);
#196=EDGE_CURVE('',#226,#224,#227,.T.);
#197=EDGE_CURVE('',#228,#226,#229,.T.);
#198=EDGE_CURVE('',#230,#228,#231,.T.);
#199=EDGE_CURVE('',#222,#230,#232,.T.);
#200=FILL_AREA_STYLE('',(#233));
#201=EDGE_CURVE('',#230,#234,#235,.T.);
#202=EDGE_CURVE('',#236,#234,#237,.T.);
#203=EDGE_CURVE('',#222,#236,#238,.T.);
#204=FILL_AREA_STYLE('',(#239));
#205=EDGE_CURVE('',#240,#236,#241,.T.);
#206=EDGE_CURVE('',#221,#240,#242,.T.);
#207=FILL_AREA_STYLE('',(#243));
#208=EDGE_CURVE('',#244,#240,#245,.T.);
#209=EDGE_CURVE('',#224,#244,#246,.T.);
#210=FILL_AREA_STYLE('',(#247));
#211=EDGE_CURVE('',#248,#244,#249,.T.);
#212=EDGE_CURVE('',#226,#248,#250,.T.);
#213=FILL_AREA_STYLE('',(#251));
#214=EDGE_CURVE('',#252,#248,#253,.T.);
#215=EDGE_CURVE('',#228,#252,#254,.T.);
#216=FILL_AREA_STYLE('',(#255));
#217=EDGE_CURVE('',#234,#252,#256,.T.);
#218=FILL_AREA_STYLE('',(#257));
#219=FILL_AREA_STYLE('',(#258));
#220=FILL_AREA_STYLE_COLOUR('',#259);
#221=VERTEX_POINT('',#260);
#222=VERTEX_POINT('',#261);
#223=LINE('',#262,#263);
#224=VERTEX_POINT('',#264);
#225=LINE('',#265,#266);
#226=VERTEX_POINT('',#267);
#227=LINE('',#268,#269);
#228=VERTEX_POINT('',#270);
#229=LINE('',#271,#272);
#230=VERTEX_POINT('',#273);
#231=LINE('',#274,#275);
#232=LINE('',#276,#277);
#233=FILL_AREA_STYLE_COLOUR('',#278);
#234=VERTEX_POINT('',#279);
#235=LINE('',#280,#281);
#236=VERTEX_POINT('',#282);
#237=LINE('',#283,#284);
#238=LINE('',#285,#286);
#239=FILL_AREA_STYLE_COLOUR('',#287);
#240=VERTEX_POINT('',#288);
#241=LINE('',#289,#290);
#242=LINE('',#291,#292);
#243=FILL_AREA_STYLE_COLOUR('',#293);
#244=VERTEX_POINT('',#294);
#245=LINE('',#295,#296);
#246=LINE('',#297,#298);
#247=FILL_AREA_STYLE_COLOUR('',#299);
#248=VERTEX_POINT('',#300);
#249=LINE('',#301,#302);
#250=LINE('',#303,#304);
#251=FILL_AREA_STYLE_COLOUR('',#305);
#252=VERTEX_POINT('',#306);
#253=LINE('',#307,#308);
#254=LINE('',#309,#310);
#255=FILL_AREA_STYLE_COLOUR('',#311);
#256=LINE('',#312,#313);
#257=FILL_AREA_STYLE_COLOUR('',#314);
#258=FILL_AREA_STYLE_COLOUR('',#315);
#259=COLOUR_RGB('',0.752941191196442,0.752941191196442,0.752941191196442);
#260=CARTESIAN_POINT('',(-1.239914E-015,-6.75,8.95));
#261=CARTESIAN_POINT('',(-1.239914E-015,-6.75,-8.95));
#262=CARTESIAN_POINT('',(-1.239914E-015,-6.75,8.95));
#263=VECTOR('',#316,17.9);
#264=CARTESIAN_POINT('',(0.0,0.0,7.79013786889666));
#265=CARTESIAN_POINT('',(0.0,0.0,7.79013786889666));
#266=VECTOR('',#317,6.84892547507765);
#267=CARTESIAN_POINT('',(1.239914E-015,6.75,8.95));
#268=CARTESIAN_POINT('',(1.239914E-015,6.75,8.95));
#269=VECTOR('',#318,6.84892547507765);
#270=CARTESIAN_POINT('',(1.239914E-015,6.75,-8.95));
#271=CARTESIAN_POINT('',(1.239914E-015,6.75,-8.95));
#272=VECTOR('',#319,17.9);
#273=CARTESIAN_POINT('',(0.0,0.0,-7.79013786889665));
#274=CARTESIAN_POINT('',(0.0,0.0,-7.79013786889665));
#275=VECTOR('',#320,6.84892547507765);
#276=CARTESIAN_POINT('',(-1.239914E-015,-6.75,-8.95));
#277=VECTOR('',#321,6.84892547507765);
#278=COLOUR_RGB('',0.752941191196442,0.752941191196442,0.752941191196442);
#279=CARTESIAN_POINT('',(2.0,-3.673819E-016,-7.79013786889665));
#280=CARTESIAN_POINT('',(0.0,0.0,-7.79013786889665));
#281=VECTOR('',#322,2.0);
#282=CARTESIAN_POINT('',(2.0,-6.75,-8.95));
#283=CARTESIAN_POINT('',(2.0,-6.75,-8.95));
#284=VECTOR('',#323,6.84892547507765);
#285=CARTESIAN_POINT('',(-1.239914E-015,-6.75,-8.95));
#286=VECTOR('',#324,2.0);
#287=COLOUR_RGB('',0.752941191196442,0.752941191196442,0.752941191196442);
#288=CARTESIAN_POINT('',(2.0,-6.75,8.95));
#289=CARTESIAN_POINT('',(2.0,-6.75,8.95));
#290=VECTOR('',#325,17.9);
#291=CARTESIAN_POINT('',(-1.239914E-015,-6.75,8.95));
#292=VECTOR('',#326,2.0);
#293=COLOUR_RGB('',0.752941191196442,0.752941191196442,0.752941191196442);
#294=CARTESIAN_POINT('',(2.0,-3.673819E-016,7.79013786889666));
#295=CARTESIAN_POINT('',(2.0,-3.673819E-016,7.79013786889666));
#296=VECTOR('',#327,6.84892547507765);
#297=CARTESIAN_POINT('',(0.0,0.0,7.79013786889666));
#298=VECTOR('',#328,2.0);
#299=COLOUR_RGB('',0.752941191196442,0.752941191196442,0.752941191196442);
#300=CARTESIAN_POINT('',(2.0,6.75,8.95));
#301=CARTESIAN_POINT('',(2.0,6.75,8.95));
#302=VECTOR('',#329,6.84892547507765);
#303=CARTESIAN_POINT('',(1.239914E-015,6.75,8.95));
#304=VECTOR('',#330,2.0);
#305=COLOUR_RGB('',0.752941191196442,0.752941191196442,0.752941191196442);
#306=CARTESIAN_POINT('',(2.0,6.75,-8.95));
#307=CARTESIAN_POINT('',(2.0,6.75,-8.95));
#308=VECTOR('',#331,17.9);
#309=CARTESIAN_POINT('',(1.239914E-015,6.75,-8.95));
#310=VECTOR('',#332,2.0);
#311=COLOUR_RGB('',0.752941191196442,0.752941191196442,0.752941191196442);
#312=CARTESIAN_POINT('',(2.0,-3.673819E-016,-7.79013786889665));
#313=VECTOR('',#333,6.84892547507765);
#314=COLOUR_RGB('',0.752941191196442,0.752941191196442,0.752941191196442);
#315=COLOUR_RGB('',0.752941012382507,0.752941012382507,0.752941012382507);
#316=DIRECTION('',(0.0,0.0,-1.0));
#317=DIRECTION('',(-1.810377E-016,-0.985556059058078,0.169349503849024));
#318=DIRECTION('',(-1.810377E-016,-0.985556059058078,-0.169349503849025));
#319=DIRECTION('',(0.0,0.0,1.0));
#320=DIRECTION('',(1.810377E-016,0.985556059058078,-0.169349503849025));
#321=DIRECTION('',(1.810377E-016,0.985556059058078,0.169349503849026));
#322=DIRECTION('',(1.0,0.0,0.0));
#323=DIRECTION('',(1.945221E-016,0.985556059058078,0.169349503849026));
#324=DIRECTION('',(1.0,0.0,0.0));
#325=DIRECTION('',(0.0,0.0,-1.0));
#326=DIRECTION('',(1.0,0.0,0.0));
#327=DIRECTION('',(-1.945221E-016,-0.985556059058078,0.169349503849024));
#328=DIRECTION('',(1.0,0.0,0.0));
#329=DIRECTION('',(-1.945221E-016,-0.985556059058078,-0.169349503849025));
#330=DIRECTION('',(1.0,0.0,0.0));
#331=DIRECTION('',(0.0,0.0,1.0));
#332=DIRECTION('',(1.0,0.0,0.0));
#333=DIRECTION('',(1.945221E-016,0.985556059058078,-0.169349503849025));
ENDSEC;
END-ISO-10303-21;
