ISO-10303-21;
HEADER;
FILE_DESCRIPTION(('STEP AP214'),'1');
FILE_NAME('cctmp_AB0C4D6A-EB74-4EB7-BE5B-0C31C81F5431_2020_1_15_8_12_8_810..stp','2020-01-15T07:12:08',('Bosch Rexroth AG'),('CADClick - www.CADClick.com'),'Spatial InterOp 3D',' ','unknown authorization - (Healing Option Enabled)');
FILE_SCHEMA(('AUTOMOTIVE_DESIGN'));
ENDSEC;
DATA;
#1=MECHANICAL_DESIGN_GEOMETRIC_PRESENTATION_REPRESENTATION(' ',(#10,#11,#12,#13,#14,#15,#16,#17,#18,#19,#20,#21,#22),#6);
#2=PRODUCT_DEFINITION_CONTEXT('',#23,'design');
#3=APPLICATION_PROTOCOL_DEFINITION('INTERNATIONAL STANDARD','automotive_design',1994,#23);
#4=PRODUCT_CATEGORY_RELATIONSHIP('NONE','NONE',#24,#25);
#5=SHAPE_DEFINITION_REPRESENTATION(#26,#27);
#6= (GEOMETRIC_REPRESENTATION_CONTEXT(3)GLOBAL_UNCERTAINTY_ASSIGNED_CONTEXT((#30))GLOBAL_UNIT_ASSIGNED_CONTEXT((#32,#33,#34))REPRESENTATION_CONTEXT('NONE','WORKSPACE'));
#10=STYLED_ITEM('',(#36),#37);
#11=STYLED_ITEM('',(#38),#39);
#12=STYLED_ITEM('',(#40),#41);
#13=STYLED_ITEM('',(#42),#43);
#14=STYLED_ITEM('',(#44),#45);
#15=STYLED_ITEM('',(#46),#47);
#16=STYLED_ITEM('',(#48),#49);
#17=STYLED_ITEM('',(#50),#51);
#18=STYLED_ITEM('',(#52),#53);
#19=STYLED_ITEM('',(#54),#55);
#20=STYLED_ITEM('',(#56),#57);
#21=STYLED_ITEM('',(#58),#59);
#22=STYLED_ITEM('',(#60),#61);
#23=APPLICATION_CONTEXT(' ');
#24=PRODUCT_CATEGORY('part','NONE');
#25=PRODUCT_RELATED_PRODUCT_CATEGORY('detail',' ',(#62));
#26=PRODUCT_DEFINITION_SHAPE('NONE','NONE',#63);
#27=ADVANCED_BREP_SHAPE_REPRESENTATION('2020_01_15__08-12-08-810',(#61,#64),#6);
#30=UNCERTAINTY_MEASURE_WITH_UNIT(LENGTH_MEASURE(1.0E-006),#32,'','');
#32= (CONVERSION_BASED_UNIT('MILLIMETRE',#67)LENGTH_UNIT()NAMED_UNIT(#70));
#33= (NAMED_UNIT(#72)PLANE_ANGLE_UNIT()SI_UNIT($,.RADIAN.));
#34= (NAMED_UNIT(#72)SOLID_ANGLE_UNIT()SI_UNIT($,.STERADIAN.));
#36=PRESENTATION_STYLE_ASSIGNMENT((#78));
#37=ADVANCED_FACE('',(#79),#80,.T.);
#38=PRESENTATION_STYLE_ASSIGNMENT((#81));
#39=ADVANCED_FACE('',(#82),#83,.T.);
#40=PRESENTATION_STYLE_ASSIGNMENT((#84));
#41=ADVANCED_FACE('',(#85),#86,.T.);
#42=PRESENTATION_STYLE_ASSIGNMENT((#87));
#43=ADVANCED_FACE('',(#88),#89,.T.);
#44=PRESENTATION_STYLE_ASSIGNMENT((#90));
#45=ADVANCED_FACE('',(#91),#92,.T.);
#46=PRESENTATION_STYLE_ASSIGNMENT((#93));
#47=ADVANCED_FACE('',(#94),#95,.T.);
#48=PRESENTATION_STYLE_ASSIGNMENT((#96));
#49=ADVANCED_FACE('',(#97),#98,.T.);
#50=PRESENTATION_STYLE_ASSIGNMENT((#99));
#51=ADVANCED_FACE('',(#100),#101,.T.);
#52=PRESENTATION_STYLE_ASSIGNMENT((#102));
#53=ADVANCED_FACE('',(#103),#104,.T.);
#54=PRESENTATION_STYLE_ASSIGNMENT((#105));
#55=ADVANCED_FACE('',(#106),#107,.T.);
#56=PRESENTATION_STYLE_ASSIGNMENT((#108));
#57=ADVANCED_FACE('',(#109),#110,.F.);
#58=PRESENTATION_STYLE_ASSIGNMENT((#111));
#59=ADVANCED_FACE('',(#112),#113,.T.);
#60=PRESENTATION_STYLE_ASSIGNMENT((#114));
#61=MANIFOLD_SOLID_BREP('2020_01_15__08-12-08-810',#115);
#62=PRODUCT('2020_01_15__08-12-08-810','','PART--DESC',(#116));
#63=PRODUCT_DEFINITION('','NONE',#117,#2);
#64=AXIS2_PLACEMENT_3D('',#118,#119,#120);
#67=LENGTH_MEASURE_WITH_UNIT(LENGTH_MEASURE(1.0),#121);
#70=DIMENSIONAL_EXPONENTS(1.0,0.0,0.0,0.0,0.0,0.0,0.0);
#72=DIMENSIONAL_EXPONENTS(0.0,0.0,0.0,0.0,0.0,0.0,0.0);
#78=SURFACE_STYLE_USAGE(.BOTH.,#122);
#79=FACE_OUTER_BOUND('',#123,.T.);
#80=PLANE('',#124);
#81=SURFACE_STYLE_USAGE(.BOTH.,#125);
#82=FACE_OUTER_BOUND('',#126,.T.);
#83=PLANE('',#127);
#84=SURFACE_STYLE_USAGE(.BOTH.,#128);
#85=FACE_OUTER_BOUND('',#129,.T.);
#86=PLANE('',#130);
#87=SURFACE_STYLE_USAGE(.BOTH.,#131);
#88=FACE_OUTER_BOUND('',#132,.T.);
#89=PLANE('',#133);
#90=SURFACE_STYLE_USAGE(.BOTH.,#134);
#91=FACE_OUTER_BOUND('',#135,.T.);
#92=PLANE('',#136);
#93=SURFACE_STYLE_USAGE(.BOTH.,#137);
#94=FACE_OUTER_BOUND('',#138,.T.);
#95=PLANE('',#139);
#96=SURFACE_STYLE_USAGE(.BOTH.,#140);
#97=FACE_OUTER_BOUND('',#141,.T.);
#98=PLANE('',#142);
#99=SURFACE_STYLE_USAGE(.BOTH.,#143);
#100=FACE_OUTER_BOUND('',#144,.T.);
#101=PLANE('',#145);
#102=SURFACE_STYLE_USAGE(.BOTH.,#146);
#103=FACE_OUTER_BOUND('',#147,.T.);
#104=PLANE('',#148);
#105=SURFACE_STYLE_USAGE(.BOTH.,#149);
#106=FACE_OUTER_BOUND('',#150,.T.);
#107=PLANE('',#151);
#108=SURFACE_STYLE_USAGE(.BOTH.,#152);
#109=FACE_OUTER_BOUND('',#153,.T.);
#110=PLANE('',#154);
#111=SURFACE_STYLE_USAGE(.BOTH.,#155);
#112=FACE_OUTER_BOUND('',#156,.T.);
#113=PLANE('',#157);
#114=SURFACE_STYLE_USAGE(.BOTH.,#158);
#115=CLOSED_SHELL('',(#37,#39,#41,#43,#45,#47,#49,#51,#53,#55,#57,#59));
#116=PRODUCT_CONTEXT('',#23,'mechanical');
#117=PRODUCT_DEFINITION_FORMATION_WITH_SPECIFIED_SOURCE(' ','NONE',#62,.NOT_KNOWN.);
#118=CARTESIAN_POINT('',(0.0,0.0,0.0));
#119=DIRECTION('',(0.0,0.0,1.0));
#120=DIRECTION('',(1.0,0.0,0.0));
#121= (NAMED_UNIT(#70)LENGTH_UNIT()SI_UNIT(.MILLI.,.METRE.));
#122=SURFACE_SIDE_STYLE('',(#160));
#123=EDGE_LOOP('',(#161,#162,#163,#164));
#124=AXIS2_PLACEMENT_3D('',#165,#166,#167);
#125=SURFACE_SIDE_STYLE('',(#168));
#126=EDGE_LOOP('',(#169,#170,#171,#172));
#127=AXIS2_PLACEMENT_3D('',#173,#174,#175);
#128=SURFACE_SIDE_STYLE('',(#176));
#129=EDGE_LOOP('',(#177,#178,#179,#180));
#130=AXIS2_PLACEMENT_3D('',#181,#182,#183);
#131=SURFACE_SIDE_STYLE('',(#184));
#132=EDGE_LOOP('',(#185,#186,#187,#188));
#133=AXIS2_PLACEMENT_3D('',#189,#190,#191);
#134=SURFACE_SIDE_STYLE('',(#192));
#135=EDGE_LOOP('',(#193,#194,#195,#196));
#136=AXIS2_PLACEMENT_3D('',#197,#198,#199);
#137=SURFACE_SIDE_STYLE('',(#200));
#138=EDGE_LOOP('',(#201,#202,#203,#204));
#139=AXIS2_PLACEMENT_3D('',#205,#206,#207);
#140=SURFACE_SIDE_STYLE('',(#208));
#141=EDGE_LOOP('',(#209,#210,#211,#212));
#142=AXIS2_PLACEMENT_3D('',#213,#214,#215);
#143=SURFACE_SIDE_STYLE('',(#216));
#144=EDGE_LOOP('',(#217,#218,#219,#220));
#145=AXIS2_PLACEMENT_3D('',#221,#222,#223);
#146=SURFACE_SIDE_STYLE('',(#224));
#147=EDGE_LOOP('',(#225,#226,#227,#228));
#148=AXIS2_PLACEMENT_3D('',#229,#230,#231);
#149=SURFACE_SIDE_STYLE('',(#232));
#150=EDGE_LOOP('',(#233,#234,#235,#236));
#151=AXIS2_PLACEMENT_3D('',#237,#238,#239);
#152=SURFACE_SIDE_STYLE('',(#240));
#153=EDGE_LOOP('',(#241,#242,#243,#244,#245,#246,#247,#248,#249,#250));
#154=AXIS2_PLACEMENT_3D('',#251,#252,#253);
#155=SURFACE_SIDE_STYLE('',(#254));
#156=EDGE_LOOP('',(#255,#256,#257,#258,#259,#260,#261,#262,#263,#264));
#157=AXIS2_PLACEMENT_3D('',#265,#266,#267);
#158=SURFACE_SIDE_STYLE('',(#268));
#160=SURFACE_STYLE_FILL_AREA(#269);
#161=ORIENTED_EDGE('',*,*,#270,.T.);
#162=ORIENTED_EDGE('',*,*,#271,.F.);
#163=ORIENTED_EDGE('',*,*,#272,.F.);
#164=ORIENTED_EDGE('',*,*,#273,.T.);
#165=CARTESIAN_POINT('',(0.0,12.125,27.3137505));
#166=DIRECTION('',(0.0,-0.707106781186548,-0.707106781186548));
#167=DIRECTION('',(0.0,0.707106781186548,-0.707106781186548));
#168=SURFACE_STYLE_FILL_AREA(#274);
#169=ORIENTED_EDGE('',*,*,#275,.T.);
#170=ORIENTED_EDGE('',*,*,#276,.F.);
#171=ORIENTED_EDGE('',*,*,#277,.F.);
#172=ORIENTED_EDGE('',*,*,#271,.T.);
#173=CARTESIAN_POINT('',(0.0,11.75,28.5));
#174=DIRECTION('',(0.0,-1.0,0.0));
#175=DIRECTION('',(0.0,0.0,-1.0));
#176=SURFACE_STYLE_FILL_AREA(#278);
#177=ORIENTED_EDGE('',*,*,#279,.T.);
#178=ORIENTED_EDGE('',*,*,#280,.F.);
#179=ORIENTED_EDGE('',*,*,#281,.F.);
#180=ORIENTED_EDGE('',*,*,#276,.T.);
#181=CARTESIAN_POINT('',(0.0,12.125,29.6862495));
#182=DIRECTION('',(0.0,-0.707106781186548,0.707106781186548));
#183=DIRECTION('',(0.0,-0.707106781186548,-0.707106781186548));
#184=SURFACE_STYLE_FILL_AREA(#282);
#185=ORIENTED_EDGE('',*,*,#283,.T.);
#186=ORIENTED_EDGE('',*,*,#284,.F.);
#187=ORIENTED_EDGE('',*,*,#285,.F.);
#188=ORIENTED_EDGE('',*,*,#280,.T.);
#189=CARTESIAN_POINT('',(0.0,12.5,31.78062475));
#190=DIRECTION('',(0.0,-1.0,0.0));
#191=DIRECTION('',(0.0,0.0,-1.0));
#192=SURFACE_STYLE_FILL_AREA(#286);
#193=ORIENTED_EDGE('',*,*,#287,.T.);
#194=ORIENTED_EDGE('',*,*,#288,.F.);
#195=ORIENTED_EDGE('',*,*,#289,.F.);
#196=ORIENTED_EDGE('',*,*,#284,.T.);
#197=CARTESIAN_POINT('',(0.0,13.75,33.5));
#198=DIRECTION('',(0.0,0.0,1.0));
#199=DIRECTION('',(0.0,-1.0,0.0));
#200=SURFACE_STYLE_FILL_AREA(#290);
#201=ORIENTED_EDGE('',*,*,#291,.T.);
#202=ORIENTED_EDGE('',*,*,#292,.F.);
#203=ORIENTED_EDGE('',*,*,#293,.F.);
#204=ORIENTED_EDGE('',*,*,#288,.T.);
#205=CARTESIAN_POINT('',(0.0,15.0,1.75));
#206=DIRECTION('',(0.0,1.0,-0.0));
#207=DIRECTION('',(0.0,0.0,1.0));
#208=SURFACE_STYLE_FILL_AREA(#294);
#209=ORIENTED_EDGE('',*,*,#295,.T.);
#210=ORIENTED_EDGE('',*,*,#296,.F.);
#211=ORIENTED_EDGE('',*,*,#297,.F.);
#212=ORIENTED_EDGE('',*,*,#292,.T.);
#213=CARTESIAN_POINT('',(0.0,0.0,0.0));
#214=DIRECTION('',(0.0,0.0,-1.0));
#215=DIRECTION('',(0.0,1.0,0.0));
#216=SURFACE_STYLE_FILL_AREA(#298);
#217=ORIENTED_EDGE('',*,*,#299,.T.);
#218=ORIENTED_EDGE('',*,*,#300,.F.);
#219=ORIENTED_EDGE('',*,*,#301,.F.);
#220=ORIENTED_EDGE('',*,*,#296,.T.);
#221=CARTESIAN_POINT('',(0.0,-15.0,1.75));
#222=DIRECTION('',(0.0,-1.0,0.0));
#223=DIRECTION('',(0.0,0.0,-1.0));
#224=SURFACE_STYLE_FILL_AREA(#302);
#225=ORIENTED_EDGE('',*,*,#303,.T.);
#226=ORIENTED_EDGE('',*,*,#304,.F.);
#227=ORIENTED_EDGE('',*,*,#305,.F.);
#228=ORIENTED_EDGE('',*,*,#300,.T.);
#229=CARTESIAN_POINT('',(0.0,-1.25,3.5));
#230=DIRECTION('',(0.0,0.0,1.0));
#231=DIRECTION('',(0.0,-1.0,0.0));
#232=SURFACE_STYLE_FILL_AREA(#306);
#233=ORIENTED_EDGE('',*,*,#307,.T.);
#234=ORIENTED_EDGE('',*,*,#273,.F.);
#235=ORIENTED_EDGE('',*,*,#308,.F.);
#236=ORIENTED_EDGE('',*,*,#304,.T.);
#237=CARTESIAN_POINT('',(0.0,12.5,15.21937525));
#238=DIRECTION('',(0.0,-1.0,0.0));
#239=DIRECTION('',(0.0,0.0,-1.0));
#240=SURFACE_STYLE_FILL_AREA(#309);
#241=ORIENTED_EDGE('',*,*,#270,.F.);
#242=ORIENTED_EDGE('',*,*,#307,.F.);
#243=ORIENTED_EDGE('',*,*,#303,.F.);
#244=ORIENTED_EDGE('',*,*,#299,.F.);
#245=ORIENTED_EDGE('',*,*,#295,.F.);
#246=ORIENTED_EDGE('',*,*,#291,.F.);
#247=ORIENTED_EDGE('',*,*,#287,.F.);
#248=ORIENTED_EDGE('',*,*,#283,.F.);
#249=ORIENTED_EDGE('',*,*,#279,.F.);
#250=ORIENTED_EDGE('',*,*,#275,.F.);
#251=CARTESIAN_POINT('',(1000.0,6.50952468348745,10.3427673858732));
#252=DIRECTION('',(-1.0,0.0,0.0));
#253=DIRECTION('',(0.0,-1.0,0.0));
#254=SURFACE_STYLE_FILL_AREA(#310);
#255=ORIENTED_EDGE('',*,*,#308,.T.);
#256=ORIENTED_EDGE('',*,*,#272,.T.);
#257=ORIENTED_EDGE('',*,*,#277,.T.);
#258=ORIENTED_EDGE('',*,*,#281,.T.);
#259=ORIENTED_EDGE('',*,*,#285,.T.);
#260=ORIENTED_EDGE('',*,*,#289,.T.);
#261=ORIENTED_EDGE('',*,*,#293,.T.);
#262=ORIENTED_EDGE('',*,*,#297,.T.);
#263=ORIENTED_EDGE('',*,*,#301,.T.);
#264=ORIENTED_EDGE('',*,*,#305,.T.);
#265=CARTESIAN_POINT('',(0.0,6.50952468348745,10.3427673858732));
#266=DIRECTION('',(-1.0,0.0,0.0));
#267=DIRECTION('',(0.0,-1.0,0.0));
#268=SURFACE_STYLE_FILL_AREA(#311);
#269=FILL_AREA_STYLE('',(#312));
#270=EDGE_CURVE('',#313,#314,#315,.T.);
#271=EDGE_CURVE('',#316,#314,#317,.T.);
#272=EDGE_CURVE('',#318,#316,#319,.T.);
#273=EDGE_CURVE('',#318,#313,#320,.T.);
#274=FILL_AREA_STYLE('',(#321));
#275=EDGE_CURVE('',#314,#322,#323,.T.);
#276=EDGE_CURVE('',#324,#322,#325,.T.);
#277=EDGE_CURVE('',#316,#324,#326,.T.);
#278=FILL_AREA_STYLE('',(#327));
#279=EDGE_CURVE('',#322,#328,#329,.T.);
#280=EDGE_CURVE('',#330,#328,#331,.T.);
#281=EDGE_CURVE('',#324,#330,#332,.T.);
#282=FILL_AREA_STYLE('',(#333));
#283=EDGE_CURVE('',#328,#334,#335,.T.);
#284=EDGE_CURVE('',#336,#334,#337,.T.);
#285=EDGE_CURVE('',#330,#336,#338,.T.);
#286=FILL_AREA_STYLE('',(#339));
#287=EDGE_CURVE('',#334,#340,#341,.T.);
#288=EDGE_CURVE('',#342,#340,#343,.T.);
#289=EDGE_CURVE('',#336,#342,#344,.T.);
#290=FILL_AREA_STYLE('',(#345));
#291=EDGE_CURVE('',#340,#346,#347,.T.);
#292=EDGE_CURVE('',#348,#346,#349,.T.);
#293=EDGE_CURVE('',#342,#348,#350,.T.);
#294=FILL_AREA_STYLE('',(#351));
#295=EDGE_CURVE('',#346,#352,#353,.T.);
#296=EDGE_CURVE('',#354,#352,#355,.T.);
#297=EDGE_CURVE('',#348,#354,#356,.T.);
#298=FILL_AREA_STYLE('',(#357));
#299=EDGE_CURVE('',#352,#358,#359,.T.);
#300=EDGE_CURVE('',#360,#358,#361,.T.);
#301=EDGE_CURVE('',#354,#360,#362,.T.);
#302=FILL_AREA_STYLE('',(#363));
#303=EDGE_CURVE('',#358,#364,#365,.T.);
#304=EDGE_CURVE('',#366,#364,#367,.T.);
#305=EDGE_CURVE('',#360,#366,#368,.T.);
#306=FILL_AREA_STYLE('',(#369));
#307=EDGE_CURVE('',#364,#313,#370,.T.);
#308=EDGE_CURVE('',#366,#318,#371,.T.);
#309=FILL_AREA_STYLE('',(#372));
#310=FILL_AREA_STYLE('',(#373));
#311=FILL_AREA_STYLE('',(#374));
#312=FILL_AREA_STYLE_COLOUR('',#375);
#313=VERTEX_POINT('',#376);
#314=VERTEX_POINT('',#377);
#315=LINE('',#378,#379);
#316=VERTEX_POINT('',#380);
#317=LINE('',#381,#382);
#318=VERTEX_POINT('',#383);
#319=LINE('',#384,#385);
#320=LINE('',#386,#387);
#321=FILL_AREA_STYLE_COLOUR('',#388);
#322=VERTEX_POINT('',#389);
#323=LINE('',#390,#391);
#324=VERTEX_POINT('',#392);
#325=LINE('',#393,#394);
#326=LINE('',#395,#396);
#327=FILL_AREA_STYLE_COLOUR('',#397);
#328=VERTEX_POINT('',#398);
#329=LINE('',#399,#400);
#330=VERTEX_POINT('',#401);
#331=LINE('',#402,#403);
#332=LINE('',#404,#405);
#333=FILL_AREA_STYLE_COLOUR('',#406);
#334=VERTEX_POINT('',#407);
#335=LINE('',#408,#409);
#336=VERTEX_POINT('',#410);
#337=LINE('',#411,#412);
#338=LINE('',#413,#414);
#339=FILL_AREA_STYLE_COLOUR('',#415);
#340=VERTEX_POINT('',#416);
#341=LINE('',#417,#418);
#342=VERTEX_POINT('',#419);
#343=LINE('',#420,#421);
#344=LINE('',#422,#423);
#345=FILL_AREA_STYLE_COLOUR('',#424);
#346=VERTEX_POINT('',#425);
#347=LINE('',#426,#427);
#348=VERTEX_POINT('',#428);
#349=LINE('',#429,#430);
#350=LINE('',#431,#432);
#351=FILL_AREA_STYLE_COLOUR('',#433);
#352=VERTEX_POINT('',#434);
#353=LINE('',#435,#436);
#354=VERTEX_POINT('',#437);
#355=LINE('',#438,#439);
#356=LINE('',#440,#441);
#357=FILL_AREA_STYLE_COLOUR('',#442);
#358=VERTEX_POINT('',#443);
#359=LINE('',#444,#445);
#360=VERTEX_POINT('',#446);
#361=LINE('',#447,#448);
#362=LINE('',#449,#450);
#363=FILL_AREA_STYLE_COLOUR('',#451);
#364=VERTEX_POINT('',#452);
#365=LINE('',#453,#454);
#366=VERTEX_POINT('',#455);
#367=LINE('',#456,#457);
#368=LINE('',#458,#459);
#369=FILL_AREA_STYLE_COLOUR('',#460);
#370=LINE('',#461,#462);
#371=LINE('',#463,#464);
#372=FILL_AREA_STYLE_COLOUR('',#465);
#373=FILL_AREA_STYLE_COLOUR('',#466);
#374=FILL_AREA_STYLE_COLOUR('',#467);
#375=COLOUR_RGB('',0.509803950786591,0.509803950786591,0.588235318660736);
#376=CARTESIAN_POINT('',(1000.0,12.5,26.9387505));
#377=CARTESIAN_POINT('',(1000.0,11.75,27.6887505));
#378=CARTESIAN_POINT('',(1000.0,12.5,26.9387505));
#379=VECTOR('',#468,1.0);
#380=CARTESIAN_POINT('',(0.0,11.75,27.6887505));
#381=CARTESIAN_POINT('',(0.0,11.75,27.6887505));
#382=VECTOR('',#469,1.0);
#383=CARTESIAN_POINT('',(0.0,12.5,26.9387505));
#384=CARTESIAN_POINT('',(0.0,12.5,26.9387505));
#385=VECTOR('',#470,1.0);
#386=CARTESIAN_POINT('',(0.0,12.5,26.9387505));
#387=VECTOR('',#471,1.0);
#388=COLOUR_RGB('',0.509803950786591,0.509803950786591,0.588235318660736);
#389=CARTESIAN_POINT('',(1000.0,11.75,29.3112495));
#390=CARTESIAN_POINT('',(1000.0,11.75,27.6887505));
#391=VECTOR('',#472,1.0);
#392=CARTESIAN_POINT('',(0.0,11.75,29.3112495));
#393=CARTESIAN_POINT('',(0.0,11.75,29.3112495));
#394=VECTOR('',#473,1.0);
#395=CARTESIAN_POINT('',(0.0,11.75,27.6887505));
#396=VECTOR('',#474,1.0);
#397=COLOUR_RGB('',0.509803950786591,0.509803950786591,0.588235318660736);
#398=CARTESIAN_POINT('',(1000.0,12.5,30.0612495));
#399=CARTESIAN_POINT('',(1000.0,11.75,29.3112495));
#400=VECTOR('',#475,1.0);
#401=CARTESIAN_POINT('',(0.0,12.5,30.0612495));
#402=CARTESIAN_POINT('',(0.0,12.5,30.0612495));
#403=VECTOR('',#476,1.0);
#404=CARTESIAN_POINT('',(0.0,11.75,29.3112495));
#405=VECTOR('',#477,1.0);
#406=COLOUR_RGB('',0.509803950786591,0.509803950786591,0.588235318660736);
#407=CARTESIAN_POINT('',(1000.0,12.5,33.5));
#408=CARTESIAN_POINT('',(1000.0,12.5,30.0612495));
#409=VECTOR('',#478,1.0);
#410=CARTESIAN_POINT('',(0.0,12.5,33.5));
#411=CARTESIAN_POINT('',(0.0,12.5,33.5));
#412=VECTOR('',#479,1.0);
#413=CARTESIAN_POINT('',(0.0,12.5,30.0612495));
#414=VECTOR('',#480,1.0);
#415=COLOUR_RGB('',0.509803950786591,0.509803950786591,0.588235318660736);
#416=CARTESIAN_POINT('',(1000.0,15.0,33.5));
#417=CARTESIAN_POINT('',(1000.0,12.5,33.5));
#418=VECTOR('',#481,1.0);
#419=CARTESIAN_POINT('',(0.0,15.0,33.5));
#420=CARTESIAN_POINT('',(0.0,15.0,33.5));
#421=VECTOR('',#482,1.0);
#422=CARTESIAN_POINT('',(0.0,12.5,33.5));
#423=VECTOR('',#483,1.0);
#424=COLOUR_RGB('',0.509803950786591,0.509803950786591,0.588235318660736);
#425=CARTESIAN_POINT('',(1000.0,15.0,0.0));
#426=CARTESIAN_POINT('',(1000.0,15.0,33.5));
#427=VECTOR('',#484,1.0);
#428=CARTESIAN_POINT('',(0.0,15.0,0.0));
#429=CARTESIAN_POINT('',(0.0,15.0,0.0));
#430=VECTOR('',#485,1.0);
#431=CARTESIAN_POINT('',(0.0,15.0,33.5));
#432=VECTOR('',#486,1.0);
#433=COLOUR_RGB('',0.509803950786591,0.509803950786591,0.588235318660736);
#434=CARTESIAN_POINT('',(1000.0,-15.0,0.0));
#435=CARTESIAN_POINT('',(1000.0,15.0,0.0));
#436=VECTOR('',#487,1.0);
#437=CARTESIAN_POINT('',(0.0,-15.0,0.0));
#438=CARTESIAN_POINT('',(0.0,-15.0,0.0));
#439=VECTOR('',#488,1.0);
#440=CARTESIAN_POINT('',(0.0,15.0,0.0));
#441=VECTOR('',#489,1.0);
#442=COLOUR_RGB('',0.509803950786591,0.509803950786591,0.588235318660736);
#443=CARTESIAN_POINT('',(1000.0,-15.0,3.5));
#444=CARTESIAN_POINT('',(1000.0,-15.0,0.0));
#445=VECTOR('',#490,1.0);
#446=CARTESIAN_POINT('',(0.0,-15.0,3.5));
#447=CARTESIAN_POINT('',(0.0,-15.0,3.5));
#448=VECTOR('',#491,1.0);
#449=CARTESIAN_POINT('',(0.0,-15.0,0.0));
#450=VECTOR('',#492,1.0);
#451=COLOUR_RGB('',0.509803950786591,0.509803950786591,0.588235318660736);
#452=CARTESIAN_POINT('',(1000.0,12.5,3.5));
#453=CARTESIAN_POINT('',(1000.0,-15.0,3.5));
#454=VECTOR('',#493,1.0);
#455=CARTESIAN_POINT('',(0.0,12.5,3.5));
#456=CARTESIAN_POINT('',(0.0,12.5,3.5));
#457=VECTOR('',#494,1.0);
#458=CARTESIAN_POINT('',(0.0,-15.0,3.5));
#459=VECTOR('',#495,1.0);
#460=COLOUR_RGB('',0.509803950786591,0.509803950786591,0.588235318660736);
#461=CARTESIAN_POINT('',(1000.0,12.5,3.5));
#462=VECTOR('',#496,1.0);
#463=CARTESIAN_POINT('',(0.0,12.5,3.5));
#464=VECTOR('',#497,1.0);
#465=COLOUR_RGB('',0.509803950786591,0.509803950786591,0.588235318660736);
#466=COLOUR_RGB('',0.509803950786591,0.509803950786591,0.588235318660736);
#467=COLOUR_RGB('',0.509803950786591,0.509803950786591,0.588235318660736);
#468=DIRECTION('',(0.0,-0.707106781186548,0.707106781186548));
#469=DIRECTION('',(1.0,0.0,0.0));
#470=DIRECTION('',(0.0,-0.707106781186548,0.707106781186548));
#471=DIRECTION('',(1.0,0.0,0.0));
#472=DIRECTION('',(0.0,0.0,1.0));
#473=DIRECTION('',(1.0,0.0,0.0));
#474=DIRECTION('',(0.0,0.0,1.0));
#475=DIRECTION('',(0.0,0.707106781186548,0.707106781186548));
#476=DIRECTION('',(1.0,0.0,0.0));
#477=DIRECTION('',(0.0,0.707106781186548,0.707106781186548));
#478=DIRECTION('',(0.0,0.0,1.0));
#479=DIRECTION('',(1.0,0.0,0.0));
#480=DIRECTION('',(0.0,0.0,1.0));
#481=DIRECTION('',(0.0,1.0,0.0));
#482=DIRECTION('',(1.0,0.0,0.0));
#483=DIRECTION('',(0.0,1.0,0.0));
#484=DIRECTION('',(0.0,0.0,-1.0));
#485=DIRECTION('',(1.0,0.0,0.0));
#486=DIRECTION('',(0.0,0.0,-1.0));
#487=DIRECTION('',(0.0,-1.0,0.0));
#488=DIRECTION('',(1.0,0.0,0.0));
#489=DIRECTION('',(0.0,-1.0,0.0));
#490=DIRECTION('',(0.0,0.0,1.0));
#491=DIRECTION('',(1.0,0.0,0.0));
#492=DIRECTION('',(0.0,0.0,1.0));
#493=DIRECTION('',(0.0,1.0,0.0));
#494=DIRECTION('',(1.0,0.0,0.0));
#495=DIRECTION('',(0.0,1.0,0.0));
#496=DIRECTION('',(0.0,0.0,1.0));
#497=DIRECTION('',(0.0,0.0,1.0));
ENDSEC;
END-ISO-10303-21;
