ISO-10303-21;
HEADER;
FILE_DESCRIPTION(('STEP AP214'),'1');
FILE_NAME('cctmp_14CA65B6-5D95-4527-A15E-8D960E075155_2020_1_15_7_55_56_764..stp','2020-01-15T06:55:56',('Bosch Rexroth AG'),('CADClick - www.CADClick.com'),'Spatial InterOp 3D',' ','unknown authorization - (Healing Option Enabled)');
FILE_SCHEMA(('AUTOMOTIVE_DESIGN'));
ENDSEC;
DATA;
#1=MECHANICAL_DESIGN_GEOMETRIC_PRESENTATION_REPRESENTATION(' ',(#10,#11,#12,#13,#14,#15,#16,#17,#18,#19,#20,#21,#22,#23,#24,#25),#6);
#2=PRODUCT_DEFINITION_CONTEXT('',#26,'design');
#3=APPLICATION_PROTOCOL_DEFINITION('INTERNATIONAL STANDARD','automotive_design',1994,#26);
#4=PRODUCT_CATEGORY_RELATIONSHIP('NONE','NONE',#27,#28);
#5=SHAPE_DEFINITION_REPRESENTATION(#29,#30);
#6= (GEOMETRIC_REPRESENTATION_CONTEXT(3)GLOBAL_UNCERTAINTY_ASSIGNED_CONTEXT((#33))GLOBAL_UNIT_ASSIGNED_CONTEXT((#35,#36,#37))REPRESENTATION_CONTEXT('NONE','WORKSPACE'));
#10=STYLED_ITEM('',(#39),#40);
#11=STYLED_ITEM('',(#41),#42);
#12=STYLED_ITEM('',(#43),#44);
#13=STYLED_ITEM('',(#45),#46);
#14=STYLED_ITEM('',(#47),#48);
#15=STYLED_ITEM('',(#49),#50);
#16=STYLED_ITEM('',(#51),#52);
#17=STYLED_ITEM('',(#53),#54);
#18=STYLED_ITEM('',(#55),#56);
#19=STYLED_ITEM('',(#57),#58);
#20=STYLED_ITEM('',(#59),#60);
#21=STYLED_ITEM('',(#61),#62);
#22=STYLED_ITEM('',(#63),#64);
#23=STYLED_ITEM('',(#65),#66);
#24=STYLED_ITEM('',(#67),#68);
#25=STYLED_ITEM('',(#69),#70);
#26=APPLICATION_CONTEXT(' ');
#27=PRODUCT_CATEGORY('part','NONE');
#28=PRODUCT_RELATED_PRODUCT_CATEGORY('detail',' ',(#71));
#29=PRODUCT_DEFINITION_SHAPE('NONE','NONE',#72);
#30=ADVANCED_BREP_SHAPE_REPRESENTATION('2020_01_15__07-55-56-764',(#70,#73),#6);
#33=UNCERTAINTY_MEASURE_WITH_UNIT(LENGTH_MEASURE(1.0E-006),#35,'','');
#35= (CONVERSION_BASED_UNIT('MILLIMETRE',#76)LENGTH_UNIT()NAMED_UNIT(#79));
#36= (NAMED_UNIT(#81)PLANE_ANGLE_UNIT()SI_UNIT($,.RADIAN.));
#37= (NAMED_UNIT(#81)SOLID_ANGLE_UNIT()SI_UNIT($,.STERADIAN.));
#39=PRESENTATION_STYLE_ASSIGNMENT((#87));
#40=ADVANCED_FACE('',(#88),#89,.T.);
#41=PRESENTATION_STYLE_ASSIGNMENT((#90));
#42=ADVANCED_FACE('',(#91),#92,.T.);
#43=PRESENTATION_STYLE_ASSIGNMENT((#93));
#44=ADVANCED_FACE('',(#94),#95,.T.);
#45=PRESENTATION_STYLE_ASSIGNMENT((#96));
#46=ADVANCED_FACE('',(#97),#98,.T.);
#47=PRESENTATION_STYLE_ASSIGNMENT((#99));
#48=ADVANCED_FACE('',(#100),#101,.T.);
#49=PRESENTATION_STYLE_ASSIGNMENT((#102));
#50=ADVANCED_FACE('',(#103,#104),#105,.F.);
#51=PRESENTATION_STYLE_ASSIGNMENT((#106));
#52=ADVANCED_FACE('',(#107),#108,.T.);
#53=PRESENTATION_STYLE_ASSIGNMENT((#109));
#54=ADVANCED_FACE('',(#110),#111,.T.);
#55=PRESENTATION_STYLE_ASSIGNMENT((#112));
#56=ADVANCED_FACE('',(#113),#114,.T.);
#57=PRESENTATION_STYLE_ASSIGNMENT((#115));
#58=ADVANCED_FACE('',(#116),#117,.T.);
#59=PRESENTATION_STYLE_ASSIGNMENT((#118));
#60=ADVANCED_FACE('',(#119),#120,.T.);
#61=PRESENTATION_STYLE_ASSIGNMENT((#121));
#62=ADVANCED_FACE('',(#122),#123,.T.);
#63=PRESENTATION_STYLE_ASSIGNMENT((#124));
#64=ADVANCED_FACE('',(#125,#126),#127,.T.);
#65=PRESENTATION_STYLE_ASSIGNMENT((#128));
#66=ADVANCED_FACE('',(#129),#130,.T.);
#67=PRESENTATION_STYLE_ASSIGNMENT((#131));
#68=ADVANCED_FACE('',(#132),#133,.T.);
#69=PRESENTATION_STYLE_ASSIGNMENT((#134));
#70=MANIFOLD_SOLID_BREP('2020_01_15__07-55-56-764',#135);
#71=PRODUCT('2020_01_15__07-55-56-764','','PART--DESC',(#136));
#72=PRODUCT_DEFINITION('','NONE',#137,#2);
#73=AXIS2_PLACEMENT_3D('',#138,#139,#140);
#76=LENGTH_MEASURE_WITH_UNIT(LENGTH_MEASURE(1.0),#141);
#79=DIMENSIONAL_EXPONENTS(1.0,0.0,0.0,0.0,0.0,0.0,0.0);
#81=DIMENSIONAL_EXPONENTS(0.0,0.0,0.0,0.0,0.0,0.0,0.0);
#87=SURFACE_STYLE_USAGE(.BOTH.,#142);
#88=FACE_OUTER_BOUND('',#143,.T.);
#89=SPHERICAL_SURFACE('',#144,8.0);
#90=SURFACE_STYLE_USAGE(.BOTH.,#145);
#91=FACE_OUTER_BOUND('',#146,.T.);
#92=CYLINDRICAL_SURFACE('',#147,6.5);
#93=SURFACE_STYLE_USAGE(.BOTH.,#148);
#94=FACE_OUTER_BOUND('',#149,.T.);
#95=CYLINDRICAL_SURFACE('',#150,6.0);
#96=SURFACE_STYLE_USAGE(.BOTH.,#151);
#97=FACE_OUTER_BOUND('',#152,.T.);
#98=CYLINDRICAL_SURFACE('',#153,6.0);
#99=SURFACE_STYLE_USAGE(.BOTH.,#154);
#100=FACE_OUTER_BOUND('',#155,.T.);
#101=PLANE('',#156);
#102=SURFACE_STYLE_USAGE(.BOTH.,#157);
#103=FACE_OUTER_BOUND('',#158,.T.);
#104=FACE_BOUND('',#159,.T.);
#105=PLANE('',#160);
#106=SURFACE_STYLE_USAGE(.BOTH.,#161);
#107=FACE_OUTER_BOUND('',#162,.T.);
#108=PLANE('',#163);
#109=SURFACE_STYLE_USAGE(.BOTH.,#164);
#110=FACE_OUTER_BOUND('',#165,.T.);
#111=PLANE('',#166);
#112=SURFACE_STYLE_USAGE(.BOTH.,#167);
#113=FACE_OUTER_BOUND('',#168,.T.);
#114=PLANE('',#169);
#115=SURFACE_STYLE_USAGE(.BOTH.,#170);
#116=FACE_OUTER_BOUND('',#171,.T.);
#117=PLANE('',#172);
#118=SURFACE_STYLE_USAGE(.BOTH.,#173);
#119=FACE_OUTER_BOUND('',#174,.T.);
#120=PLANE('',#175);
#121=SURFACE_STYLE_USAGE(.BOTH.,#176);
#122=FACE_OUTER_BOUND('',#177,.T.);
#123=PLANE('',#178);
#124=SURFACE_STYLE_USAGE(.BOTH.,#179);
#125=FACE_BOUND('',#180,.T.);
#126=FACE_OUTER_BOUND('',#181,.T.);
#127=PLANE('',#182);
#128=SURFACE_STYLE_USAGE(.BOTH.,#183);
#129=FACE_OUTER_BOUND('',#184,.T.);
#130=CYLINDRICAL_SURFACE('',#185,6.5);
#131=SURFACE_STYLE_USAGE(.BOTH.,#186);
#132=FACE_OUTER_BOUND('',#187,.T.);
#133=SPHERICAL_SURFACE('',#188,8.0);
#134=SURFACE_STYLE_USAGE(.BOTH.,#189);
#135=CLOSED_SHELL('',(#40,#42,#44,#46,#48,#50,#52,#54,#56,#58,#60,#62,#64,#66,#68));
#136=PRODUCT_CONTEXT('',#26,'mechanical');
#137=PRODUCT_DEFINITION_FORMATION_WITH_SPECIFIED_SOURCE(' ','NONE',#71,.NOT_KNOWN.);
#138=CARTESIAN_POINT('',(0.0,0.0,0.0));
#139=DIRECTION('',(0.0,0.0,1.0));
#140=DIRECTION('',(1.0,0.0,0.0));
#141= (NAMED_UNIT(#79)LENGTH_UNIT()SI_UNIT(.MILLI.,.METRE.));
#142=SURFACE_SIDE_STYLE('',(#191));
#143=EDGE_LOOP('',(#192,#193,#194));
#144=AXIS2_PLACEMENT_3D('',#195,#196,#197);
#145=SURFACE_SIDE_STYLE('',(#198));
#146=EDGE_LOOP('',(#199,#200,#201,#202));
#147=AXIS2_PLACEMENT_3D('',#203,#204,#205);
#148=SURFACE_SIDE_STYLE('',(#206));
#149=EDGE_LOOP('',(#207,#208,#209,#210));
#150=AXIS2_PLACEMENT_3D('',#211,#212,#213);
#151=SURFACE_SIDE_STYLE('',(#214));
#152=EDGE_LOOP('',(#215,#216,#217,#218));
#153=AXIS2_PLACEMENT_3D('',#219,#220,#221);
#154=SURFACE_SIDE_STYLE('',(#222));
#155=EDGE_LOOP('',(#223,#224));
#156=AXIS2_PLACEMENT_3D('',#225,#226,#227);
#157=SURFACE_SIDE_STYLE('',(#228));
#158=EDGE_LOOP('',(#229,#230,#231,#232,#233,#234));
#159=EDGE_LOOP('',(#235,#236));
#160=AXIS2_PLACEMENT_3D('',#237,#238,#239);
#161=SURFACE_SIDE_STYLE('',(#240));
#162=EDGE_LOOP('',(#241,#242,#243,#244));
#163=AXIS2_PLACEMENT_3D('',#245,#246,#247);
#164=SURFACE_SIDE_STYLE('',(#248));
#165=EDGE_LOOP('',(#249,#250,#251,#252));
#166=AXIS2_PLACEMENT_3D('',#253,#254,#255);
#167=SURFACE_SIDE_STYLE('',(#256));
#168=EDGE_LOOP('',(#257,#258,#259,#260));
#169=AXIS2_PLACEMENT_3D('',#261,#262,#263);
#170=SURFACE_SIDE_STYLE('',(#264));
#171=EDGE_LOOP('',(#265,#266,#267,#268));
#172=AXIS2_PLACEMENT_3D('',#269,#270,#271);
#173=SURFACE_SIDE_STYLE('',(#272));
#174=EDGE_LOOP('',(#273,#274,#275,#276));
#175=AXIS2_PLACEMENT_3D('',#277,#278,#279);
#176=SURFACE_SIDE_STYLE('',(#280));
#177=EDGE_LOOP('',(#281,#282,#283,#284));
#178=AXIS2_PLACEMENT_3D('',#285,#286,#287);
#179=SURFACE_SIDE_STYLE('',(#288));
#180=EDGE_LOOP('',(#289,#290));
#181=EDGE_LOOP('',(#291,#292,#293,#294,#295,#296));
#182=AXIS2_PLACEMENT_3D('',#297,#298,#299);
#183=SURFACE_SIDE_STYLE('',(#300));
#184=EDGE_LOOP('',(#301,#302,#303,#304));
#185=AXIS2_PLACEMENT_3D('',#305,#306,#307);
#186=SURFACE_SIDE_STYLE('',(#308));
#187=EDGE_LOOP('',(#309,#310,#311));
#188=AXIS2_PLACEMENT_3D('',#312,#313,#314);
#189=SURFACE_SIDE_STYLE('',(#315));
#191=SURFACE_STYLE_FILL_AREA(#316);
#192=ORIENTED_EDGE('',*,*,#317,.F.);
#193=ORIENTED_EDGE('',*,*,#318,.T.);
#194=ORIENTED_EDGE('',*,*,#319,.F.);
#195=CARTESIAN_POINT('',(0.0,0.0,16.0));
#196=DIRECTION('',(0.0,0.0,1.0));
#197=DIRECTION('',(1.0,0.0,0.0));
#198=SURFACE_STYLE_FILL_AREA(#320);
#199=ORIENTED_EDGE('',*,*,#321,.F.);
#200=ORIENTED_EDGE('',*,*,#318,.F.);
#201=ORIENTED_EDGE('',*,*,#322,.F.);
#202=ORIENTED_EDGE('',*,*,#323,.F.);
#203=CARTESIAN_POINT('',(0.0,0.0,18.5));
#204=DIRECTION('',(0.0,0.0,1.0));
#205=DIRECTION('',(1.0,0.0,0.0));
#206=SURFACE_STYLE_FILL_AREA(#324);
#207=ORIENTED_EDGE('',*,*,#325,.F.);
#208=ORIENTED_EDGE('',*,*,#326,.F.);
#209=ORIENTED_EDGE('',*,*,#327,.F.);
#210=ORIENTED_EDGE('',*,*,#328,.F.);
#211=CARTESIAN_POINT('',(0.0,0.0,86.5));
#212=DIRECTION('',(0.0,0.0,1.0));
#213=DIRECTION('',(1.0,0.0,0.0));
#214=SURFACE_STYLE_FILL_AREA(#329);
#215=ORIENTED_EDGE('',*,*,#325,.T.);
#216=ORIENTED_EDGE('',*,*,#330,.F.);
#217=ORIENTED_EDGE('',*,*,#327,.T.);
#218=ORIENTED_EDGE('',*,*,#331,.F.);
#219=CARTESIAN_POINT('',(0.0,0.0,86.5));
#220=DIRECTION('',(0.0,0.0,1.0));
#221=DIRECTION('',(1.0,0.0,0.0));
#222=SURFACE_STYLE_FILL_AREA(#332);
#223=ORIENTED_EDGE('',*,*,#328,.T.);
#224=ORIENTED_EDGE('',*,*,#330,.T.);
#225=CARTESIAN_POINT('',(0.0,0.0,145.0));
#226=DIRECTION('',(0.0,0.0,1.0));
#227=DIRECTION('',(1.0,0.0,0.0));
#228=SURFACE_STYLE_FILL_AREA(#333);
#229=ORIENTED_EDGE('',*,*,#334,.F.);
#230=ORIENTED_EDGE('',*,*,#335,.F.);
#231=ORIENTED_EDGE('',*,*,#336,.F.);
#232=ORIENTED_EDGE('',*,*,#337,.F.);
#233=ORIENTED_EDGE('',*,*,#338,.F.);
#234=ORIENTED_EDGE('',*,*,#339,.F.);
#235=ORIENTED_EDGE('',*,*,#323,.T.);
#236=ORIENTED_EDGE('',*,*,#340,.T.);
#237=CARTESIAN_POINT('',(-4.44089209850063E-016,0.0,21.0));
#238=DIRECTION('',(0.0,-0.0,1.0));
#239=DIRECTION('',(0.0,1.0,0.0));
#240=SURFACE_STYLE_FILL_AREA(#341);
#241=ORIENTED_EDGE('',*,*,#334,.T.);
#242=ORIENTED_EDGE('',*,*,#342,.F.);
#243=ORIENTED_EDGE('',*,*,#343,.F.);
#244=ORIENTED_EDGE('',*,*,#344,.T.);
#245=CARTESIAN_POINT('',(-7.36121593215,4.25,28.0));
#246=DIRECTION('',(-0.86602540378496,0.499999999999097,0.0));
#247=DIRECTION('',(0.499999999999097,0.86602540378496,0.0));
#248=SURFACE_STYLE_FILL_AREA(#345);
#249=ORIENTED_EDGE('',*,*,#339,.T.);
#250=ORIENTED_EDGE('',*,*,#346,.F.);
#251=ORIENTED_EDGE('',*,*,#347,.F.);
#252=ORIENTED_EDGE('',*,*,#342,.T.);
#253=CARTESIAN_POINT('',(-7.36121593215,-4.25,28.0));
#254=DIRECTION('',(-0.86602540378496,-0.499999999999097,0.0));
#255=DIRECTION('',(-0.499999999999097,0.86602540378496,0.0));
#256=SURFACE_STYLE_FILL_AREA(#348);
#257=ORIENTED_EDGE('',*,*,#338,.T.);
#258=ORIENTED_EDGE('',*,*,#349,.F.);
#259=ORIENTED_EDGE('',*,*,#350,.F.);
#260=ORIENTED_EDGE('',*,*,#346,.T.);
#261=CARTESIAN_POINT('',(0.0,-8.5,28.0));
#262=DIRECTION('',(-0.0,-1.0,-0.0));
#263=DIRECTION('',(-1.0,0.0,0.0));
#264=SURFACE_STYLE_FILL_AREA(#351);
#265=ORIENTED_EDGE('',*,*,#337,.T.);
#266=ORIENTED_EDGE('',*,*,#352,.F.);
#267=ORIENTED_EDGE('',*,*,#353,.F.);
#268=ORIENTED_EDGE('',*,*,#349,.T.);
#269=CARTESIAN_POINT('',(7.36121593215,-4.25,28.0));
#270=DIRECTION('',(0.86602540378496,-0.499999999999097,-0.0));
#271=DIRECTION('',(-0.499999999999097,-0.86602540378496,0.0));
#272=SURFACE_STYLE_FILL_AREA(#354);
#273=ORIENTED_EDGE('',*,*,#336,.T.);
#274=ORIENTED_EDGE('',*,*,#355,.F.);
#275=ORIENTED_EDGE('',*,*,#356,.F.);
#276=ORIENTED_EDGE('',*,*,#352,.T.);
#277=CARTESIAN_POINT('',(7.36121593215,4.25,28.0));
#278=DIRECTION('',(0.86602540378496,0.499999999999097,0.0));
#279=DIRECTION('',(0.499999999999097,-0.86602540378496,-0.0));
#280=SURFACE_STYLE_FILL_AREA(#357);
#281=ORIENTED_EDGE('',*,*,#335,.T.);
#282=ORIENTED_EDGE('',*,*,#344,.F.);
#283=ORIENTED_EDGE('',*,*,#358,.F.);
#284=ORIENTED_EDGE('',*,*,#355,.T.);
#285=CARTESIAN_POINT('',(-2.45373864405,8.5,28.0));
#286=DIRECTION('',(0.0,1.0,0.0));
#287=DIRECTION('',(1.0,0.0,-0.0));
#288=SURFACE_STYLE_FILL_AREA(#359);
#289=ORIENTED_EDGE('',*,*,#331,.T.);
#290=ORIENTED_EDGE('',*,*,#326,.T.);
#291=ORIENTED_EDGE('',*,*,#358,.T.);
#292=ORIENTED_EDGE('',*,*,#343,.T.);
#293=ORIENTED_EDGE('',*,*,#347,.T.);
#294=ORIENTED_EDGE('',*,*,#350,.T.);
#295=ORIENTED_EDGE('',*,*,#353,.T.);
#296=ORIENTED_EDGE('',*,*,#356,.T.);
#297=CARTESIAN_POINT('',(-2.77555756156289E-017,0.0,28.0));
#298=DIRECTION('',(0.0,-0.0,1.0));
#299=DIRECTION('',(0.0,1.0,0.0));
#300=SURFACE_STYLE_FILL_AREA(#360);
#301=ORIENTED_EDGE('',*,*,#321,.T.);
#302=ORIENTED_EDGE('',*,*,#340,.F.);
#303=ORIENTED_EDGE('',*,*,#322,.T.);
#304=ORIENTED_EDGE('',*,*,#361,.F.);
#305=CARTESIAN_POINT('',(0.0,0.0,18.5));
#306=DIRECTION('',(0.0,0.0,1.0));
#307=DIRECTION('',(1.0,0.0,0.0));
#308=SURFACE_STYLE_FILL_AREA(#362);
#309=ORIENTED_EDGE('',*,*,#317,.T.);
#310=ORIENTED_EDGE('',*,*,#319,.T.);
#311=ORIENTED_EDGE('',*,*,#361,.T.);
#312=CARTESIAN_POINT('',(0.0,0.0,16.0));
#313=DIRECTION('',(0.0,0.0,1.0));
#314=DIRECTION('',(1.0,0.0,0.0));
#315=SURFACE_STYLE_FILL_AREA(#363);
#316=FILL_AREA_STYLE('',(#364));
#317=EDGE_CURVE('',#365,#366,#367,.T.);
#318=EDGE_CURVE('',#365,#368,#369,.T.);
#319=EDGE_CURVE('',#366,#368,#370,.T.);
#320=FILL_AREA_STYLE('',(#371));
#321=EDGE_CURVE('',#368,#372,#373,.T.);
#322=EDGE_CURVE('',#374,#365,#375,.T.);
#323=EDGE_CURVE('',#372,#374,#376,.T.);
#324=FILL_AREA_STYLE('',(#377));
#325=EDGE_CURVE('',#378,#379,#380,.T.);
#326=EDGE_CURVE('',#381,#378,#382,.T.);
#327=EDGE_CURVE('',#383,#381,#384,.T.);
#328=EDGE_CURVE('',#379,#383,#385,.T.);
#329=FILL_AREA_STYLE('',(#386));
#330=EDGE_CURVE('',#383,#379,#387,.T.);
#331=EDGE_CURVE('',#378,#381,#388,.T.);
#332=FILL_AREA_STYLE('',(#389));
#333=FILL_AREA_STYLE('',(#390));
#334=EDGE_CURVE('',#391,#392,#393,.T.);
#335=EDGE_CURVE('',#394,#391,#395,.T.);
#336=EDGE_CURVE('',#396,#394,#397,.T.);
#337=EDGE_CURVE('',#398,#396,#399,.T.);
#338=EDGE_CURVE('',#400,#398,#401,.T.);
#339=EDGE_CURVE('',#392,#400,#402,.T.);
#340=EDGE_CURVE('',#374,#372,#403,.T.);
#341=FILL_AREA_STYLE('',(#404));
#342=EDGE_CURVE('',#405,#392,#406,.T.);
#343=EDGE_CURVE('',#407,#405,#408,.T.);
#344=EDGE_CURVE('',#407,#391,#409,.T.);
#345=FILL_AREA_STYLE('',(#410));
#346=EDGE_CURVE('',#411,#400,#412,.T.);
#347=EDGE_CURVE('',#405,#411,#413,.T.);
#348=FILL_AREA_STYLE('',(#414));
#349=EDGE_CURVE('',#415,#398,#416,.T.);
#350=EDGE_CURVE('',#411,#415,#417,.T.);
#351=FILL_AREA_STYLE('',(#418));
#352=EDGE_CURVE('',#419,#396,#420,.T.);
#353=EDGE_CURVE('',#415,#419,#421,.T.);
#354=FILL_AREA_STYLE('',(#422));
#355=EDGE_CURVE('',#423,#394,#424,.T.);
#356=EDGE_CURVE('',#419,#423,#425,.T.);
#357=FILL_AREA_STYLE('',(#426));
#358=EDGE_CURVE('',#423,#407,#427,.T.);
#359=FILL_AREA_STYLE('',(#428));
#360=FILL_AREA_STYLE('',(#429));
#361=EDGE_CURVE('',#368,#365,#430,.T.);
#362=FILL_AREA_STYLE('',(#431));
#363=FILL_AREA_STYLE('',(#432));
#364=FILL_AREA_STYLE_COLOUR('',#433);
#365=VERTEX_POINT('',#434);
#366=VERTEX_POINT('',#435);
#367=CIRCLE('',#436,8.0);
#368=VERTEX_POINT('',#437);
#369=CIRCLE('',#438,6.5);
#370=CIRCLE('',#439,8.0);
#371=FILL_AREA_STYLE_COLOUR('',#440);
#372=VERTEX_POINT('',#441);
#373=LINE('',#442,#443);
#374=VERTEX_POINT('',#444);
#375=LINE('',#445,#446);
#376=CIRCLE('',#447,6.5);
#377=FILL_AREA_STYLE_COLOUR('',#448);
#378=VERTEX_POINT('',#449);
#379=VERTEX_POINT('',#450);
#380=LINE('',#451,#452);
#381=VERTEX_POINT('',#453);
#382=CIRCLE('',#454,6.0);
#383=VERTEX_POINT('',#455);
#384=LINE('',#456,#457);
#385=CIRCLE('',#458,6.0);
#386=FILL_AREA_STYLE_COLOUR('',#459);
#387=CIRCLE('',#460,6.0);
#388=CIRCLE('',#461,6.0);
#389=FILL_AREA_STYLE_COLOUR('',#462);
#390=FILL_AREA_STYLE_COLOUR('',#463);
#391=VERTEX_POINT('',#464);
#392=VERTEX_POINT('',#465);
#393=LINE('',#466,#467);
#394=VERTEX_POINT('',#468);
#395=LINE('',#469,#470);
#396=VERTEX_POINT('',#471);
#397=LINE('',#472,#473);
#398=VERTEX_POINT('',#474);
#399=LINE('',#475,#476);
#400=VERTEX_POINT('',#477);
#401=LINE('',#478,#479);
#402=LINE('',#480,#481);
#403=CIRCLE('',#482,6.5);
#404=FILL_AREA_STYLE_COLOUR('',#483);
#405=VERTEX_POINT('',#484);
#406=LINE('',#485,#486);
#407=VERTEX_POINT('',#487);
#408=LINE('',#488,#489);
#409=LINE('',#490,#491);
#410=FILL_AREA_STYLE_COLOUR('',#492);
#411=VERTEX_POINT('',#493);
#412=LINE('',#494,#495);
#413=LINE('',#496,#497);
#414=FILL_AREA_STYLE_COLOUR('',#498);
#415=VERTEX_POINT('',#499);
#416=LINE('',#500,#501);
#417=LINE('',#502,#503);
#418=FILL_AREA_STYLE_COLOUR('',#504);
#419=VERTEX_POINT('',#505);
#420=LINE('',#506,#507);
#421=LINE('',#508,#509);
#422=FILL_AREA_STYLE_COLOUR('',#510);
#423=VERTEX_POINT('',#511);
#424=LINE('',#512,#513);
#425=LINE('',#514,#515);
#426=FILL_AREA_STYLE_COLOUR('',#516);
#427=LINE('',#517,#518);
#428=FILL_AREA_STYLE_COLOUR('',#519);
#429=FILL_AREA_STYLE_COLOUR('',#520);
#430=CIRCLE('',#521,6.5);
#431=FILL_AREA_STYLE_COLOUR('',#522);
#432=FILL_AREA_STYLE_COLOUR('',#523);
#433=COLOUR_RGB('',0.509803950786591,0.509803950786591,0.588235318660736);
#434=CARTESIAN_POINT('',(-6.5,7.96020419445779E-016,20.6636895265444));
#435=CARTESIAN_POINT('',(0.0,0.0,8.0));
#436=AXIS2_PLACEMENT_3D('',#524,#525,#526);
#437=CARTESIAN_POINT('',(6.5,-7.96020419445779E-016,20.6636895265444));
#438=AXIS2_PLACEMENT_3D('',#527,#528,#529);
#439=AXIS2_PLACEMENT_3D('',#530,#531,#532);
#440=COLOUR_RGB('',0.509803950786591,0.509803950786591,0.588235318660736);
#441=CARTESIAN_POINT('',(6.5,0.0,21.0));
#442=CARTESIAN_POINT('',(6.5,-7.96020419445779E-016,20.8318447632722));
#443=VECTOR('',#533,1.0);
#444=CARTESIAN_POINT('',(-6.5,7.96020419445779E-016,21.0));
#445=CARTESIAN_POINT('',(-6.5,7.96020419445779E-016,20.8318447632722));
#446=VECTOR('',#534,1.0);
#447=AXIS2_PLACEMENT_3D('',#535,#536,#537);
#448=COLOUR_RGB('',0.509803950786591,0.509803950786591,0.588235318660736);
#449=CARTESIAN_POINT('',(6.0,0.0,28.0));
#450=CARTESIAN_POINT('',(6.0,0.0,145.0));
#451=CARTESIAN_POINT('',(6.0,-7.34788079488412E-016,86.5));
#452=VECTOR('',#538,1.0);
#453=CARTESIAN_POINT('',(-6.0,7.34788079488412E-016,28.0));
#454=AXIS2_PLACEMENT_3D('',#539,#540,#541);
#455=CARTESIAN_POINT('',(-6.0,7.34788079488412E-016,145.0));
#456=CARTESIAN_POINT('',(-6.0,7.34788079488412E-016,86.5));
#457=VECTOR('',#542,1.0);
#458=AXIS2_PLACEMENT_3D('',#543,#544,#545);
#459=COLOUR_RGB('',0.509803950786591,0.509803950786591,0.588235318660736);
#460=AXIS2_PLACEMENT_3D('',#546,#547,#548);
#461=AXIS2_PLACEMENT_3D('',#549,#550,#551);
#462=COLOUR_RGB('',0.509803950786591,0.509803950786591,0.588235318660736);
#463=COLOUR_RGB('',0.509803950786591,0.509803950786591,0.588235318660736);
#464=CARTESIAN_POINT('',(-4.9074772881,8.5,21.0));
#465=CARTESIAN_POINT('',(-9.8149545762,0.0,21.0));
#466=CARTESIAN_POINT('',(-4.9074772881,8.5,21.0));
#467=VECTOR('',#552,1.0);
#468=CARTESIAN_POINT('',(4.9074772881,8.5,21.0));
#469=CARTESIAN_POINT('',(4.9074772881,8.5,21.0));
#470=VECTOR('',#553,1.0);
#471=CARTESIAN_POINT('',(9.8149545762,0.0,21.0));
#472=CARTESIAN_POINT('',(9.8149545762,0.0,21.0));
#473=VECTOR('',#554,1.0);
#474=CARTESIAN_POINT('',(4.9074772881,-8.5,21.0));
#475=CARTESIAN_POINT('',(4.9074772881,-8.5,21.0));
#476=VECTOR('',#555,1.0);
#477=CARTESIAN_POINT('',(-4.9074772881,-8.5,21.0));
#478=CARTESIAN_POINT('',(-4.9074772881,-8.5,21.0));
#479=VECTOR('',#556,1.0);
#480=CARTESIAN_POINT('',(-9.8149545762,0.0,21.0));
#481=VECTOR('',#557,1.0);
#482=AXIS2_PLACEMENT_3D('',#558,#559,#560);
#483=COLOUR_RGB('',0.509803950786591,0.509803950786591,0.588235318660736);
#484=CARTESIAN_POINT('',(-9.8149545762,0.0,28.0));
#485=CARTESIAN_POINT('',(-9.8149545762,0.0,28.0));
#486=VECTOR('',#561,1.0);
#487=CARTESIAN_POINT('',(-4.9074772881,8.5,28.0));
#488=CARTESIAN_POINT('',(-4.9074772881,8.5,28.0));
#489=VECTOR('',#562,1.0);
#490=CARTESIAN_POINT('',(-4.9074772881,8.5,28.0));
#491=VECTOR('',#563,1.0);
#492=COLOUR_RGB('',0.509803950786591,0.509803950786591,0.588235318660736);
#493=CARTESIAN_POINT('',(-4.9074772881,-8.5,28.0));
#494=CARTESIAN_POINT('',(-4.9074772881,-8.5,28.0));
#495=VECTOR('',#564,1.0);
#496=CARTESIAN_POINT('',(-9.8149545762,0.0,28.0));
#497=VECTOR('',#565,1.0);
#498=COLOUR_RGB('',0.509803950786591,0.509803950786591,0.588235318660736);
#499=CARTESIAN_POINT('',(4.9074772881,-8.5,28.0));
#500=CARTESIAN_POINT('',(4.9074772881,-8.5,28.0));
#501=VECTOR('',#566,1.0);
#502=CARTESIAN_POINT('',(-4.9074772881,-8.5,28.0));
#503=VECTOR('',#567,1.0);
#504=COLOUR_RGB('',0.509803950786591,0.509803950786591,0.588235318660736);
#505=CARTESIAN_POINT('',(9.8149545762,0.0,28.0));
#506=CARTESIAN_POINT('',(9.8149545762,0.0,28.0));
#507=VECTOR('',#568,1.0);
#508=CARTESIAN_POINT('',(4.9074772881,-8.5,28.0));
#509=VECTOR('',#569,1.0);
#510=COLOUR_RGB('',0.509803950786591,0.509803950786591,0.588235318660736);
#511=CARTESIAN_POINT('',(4.9074772881,8.5,28.0));
#512=CARTESIAN_POINT('',(4.9074772881,8.5,28.0));
#513=VECTOR('',#570,1.0);
#514=CARTESIAN_POINT('',(9.8149545762,0.0,28.0));
#515=VECTOR('',#571,1.0);
#516=COLOUR_RGB('',0.509803950786591,0.509803950786591,0.588235318660736);
#517=CARTESIAN_POINT('',(0.0,8.5,28.0));
#518=VECTOR('',#572,1.0);
#519=COLOUR_RGB('',0.509803950786591,0.509803950786591,0.588235318660736);
#520=COLOUR_RGB('',0.509803950786591,0.509803950786591,0.588235318660736);
#521=AXIS2_PLACEMENT_3D('',#573,#574,#575);
#522=COLOUR_RGB('',0.509803950786591,0.509803950786591,0.588235318660736);
#523=COLOUR_RGB('',0.509803950786591,0.509803950786591,0.588235318660736);
#524=CARTESIAN_POINT('',(0.0,0.0,16.0));
#525=DIRECTION('',(-1.22464679914735E-016,-1.0,0.0));
#526=DIRECTION('',(0.0,0.0,1.0));
#527=CARTESIAN_POINT('',(0.0,0.0,20.6636895265444));
#528=DIRECTION('',(0.0,0.0,-1.0));
#529=DIRECTION('',(1.0,0.0,0.0));
#530=CARTESIAN_POINT('',(0.0,0.0,16.0));
#531=DIRECTION('',(-1.22464679914735E-016,-1.0,0.0));
#532=DIRECTION('',(0.0,0.0,1.0));
#533=DIRECTION('',(0.0,0.0,1.0));
#534=DIRECTION('',(-0.0,-0.0,-1.0));
#535=CARTESIAN_POINT('',(0.0,0.0,21.0));
#536=DIRECTION('',(0.0,0.0,1.0));
#537=DIRECTION('',(1.0,0.0,0.0));
#538=DIRECTION('',(0.0,0.0,1.0));
#539=CARTESIAN_POINT('',(0.0,0.0,28.0));
#540=DIRECTION('',(0.0,0.0,-1.0));
#541=DIRECTION('',(1.0,0.0,0.0));
#542=DIRECTION('',(-0.0,-0.0,-1.0));
#543=CARTESIAN_POINT('',(0.0,0.0,145.0));
#544=DIRECTION('',(0.0,0.0,1.0));
#545=DIRECTION('',(1.0,0.0,0.0));
#546=CARTESIAN_POINT('',(0.0,0.0,145.0));
#547=DIRECTION('',(0.0,0.0,1.0));
#548=DIRECTION('',(1.0,0.0,0.0));
#549=CARTESIAN_POINT('',(0.0,0.0,28.0));
#550=DIRECTION('',(0.0,0.0,-1.0));
#551=DIRECTION('',(1.0,0.0,0.0));
#552=DIRECTION('',(-0.499999999999097,-0.86602540378496,0.0));
#553=DIRECTION('',(-1.0,0.0,0.0));
#554=DIRECTION('',(-0.499999999999097,0.86602540378496,0.0));
#555=DIRECTION('',(0.499999999999097,0.86602540378496,0.0));
#556=DIRECTION('',(1.0,0.0,0.0));
#557=DIRECTION('',(0.499999999999097,-0.86602540378496,0.0));
#558=CARTESIAN_POINT('',(0.0,0.0,21.0));
#559=DIRECTION('',(0.0,0.0,1.0));
#560=DIRECTION('',(1.0,0.0,0.0));
#561=DIRECTION('',(0.0,0.0,-1.0));
#562=DIRECTION('',(-0.499999999999097,-0.86602540378496,0.0));
#563=DIRECTION('',(0.0,0.0,-1.0));
#564=DIRECTION('',(0.0,0.0,-1.0));
#565=DIRECTION('',(0.499999999999097,-0.86602540378496,0.0));
#566=DIRECTION('',(0.0,0.0,-1.0));
#567=DIRECTION('',(1.0,0.0,0.0));
#568=DIRECTION('',(0.0,0.0,-1.0));
#569=DIRECTION('',(0.499999999999097,0.86602540378496,0.0));
#570=DIRECTION('',(0.0,0.0,-1.0));
#571=DIRECTION('',(-0.499999999999097,0.86602540378496,0.0));
#572=DIRECTION('',(-1.0,0.0,0.0));
#573=CARTESIAN_POINT('',(0.0,0.0,20.6636895265444));
#574=DIRECTION('',(0.0,0.0,-1.0));
#575=DIRECTION('',(1.0,0.0,0.0));
ENDSEC;
END-ISO-10303-21;
