ISO-10303-21;
HEADER;
FILE_DESCRIPTION(('STEP AP214'),'1');
FILE_NAME('cctmp_555E3E5E-ADEB-4610-9EC7-F28BFE959E45_2020_1_15_7_50_32_720..stp','2020-01-15T06:50:32',('Bosch Rexroth AG'),('CADClick - www.CADClick.com'),'Spatial InterOp 3D',' ','unknown authorization - (Healing Option Enabled)');
FILE_SCHEMA(('AUTOMOTIVE_DESIGN'));
ENDSEC;
DATA;
#1=MECHANICAL_DESIGN_GEOMETRIC_PRESENTATION_REPRESENTATION(' ',(#10,#11,#12,#13,#14,#15,#16),#6);
#2=PRODUCT_DEFINITION_CONTEXT('',#17,'design');
#3=APPLICATION_PROTOCOL_DEFINITION('INTERNATIONAL STANDARD','automotive_design',1994,#17);
#4=PRODUCT_CATEGORY_RELATIONSHIP('NONE','NONE',#18,#19);
#5=SHAPE_DEFINITION_REPRESENTATION(#20,#21);
#6= (GEOMETRIC_REPRESENTATION_CONTEXT(3)GLOBAL_UNCERTAINTY_ASSIGNED_CONTEXT((#24))GLOBAL_UNIT_ASSIGNED_CONTEXT((#26,#27,#28))REPRESENTATION_CONTEXT('NONE','WORKSPACE'));
#10=STYLED_ITEM('',(#30),#31);
#11=STYLED_ITEM('',(#32),#33);
#12=STYLED_ITEM('',(#34),#35);
#13=STYLED_ITEM('',(#36),#37);
#14=STYLED_ITEM('',(#38),#39);
#15=STYLED_ITEM('',(#40),#41);
#16=STYLED_ITEM('',(#42),#43);
#17=APPLICATION_CONTEXT(' ');
#18=PRODUCT_CATEGORY('part','NONE');
#19=PRODUCT_RELATED_PRODUCT_CATEGORY('detail',' ',(#44));
#20=PRODUCT_DEFINITION_SHAPE('NONE','NONE',#45);
#21=ADVANCED_BREP_SHAPE_REPRESENTATION('2020_01_15__07-50-32-720',(#43,#46),#6);
#24=UNCERTAINTY_MEASURE_WITH_UNIT(LENGTH_MEASURE(1.0E-006),#26,'','');
#26= (CONVERSION_BASED_UNIT('MILLIMETRE',#49)LENGTH_UNIT()NAMED_UNIT(#52));
#27= (NAMED_UNIT(#54)PLANE_ANGLE_UNIT()SI_UNIT($,.RADIAN.));
#28= (NAMED_UNIT(#54)SOLID_ANGLE_UNIT()SI_UNIT($,.STERADIAN.));
#30=PRESENTATION_STYLE_ASSIGNMENT((#60));
#31=ADVANCED_FACE('',(#61),#62,.T.);
#32=PRESENTATION_STYLE_ASSIGNMENT((#63));
#33=ADVANCED_FACE('',(#64),#65,.T.);
#34=PRESENTATION_STYLE_ASSIGNMENT((#66));
#35=ADVANCED_FACE('',(#67),#68,.T.);
#36=PRESENTATION_STYLE_ASSIGNMENT((#69));
#37=ADVANCED_FACE('',(#70),#71,.T.);
#38=PRESENTATION_STYLE_ASSIGNMENT((#72));
#39=ADVANCED_FACE('',(#73),#74,.T.);
#40=PRESENTATION_STYLE_ASSIGNMENT((#75));
#41=ADVANCED_FACE('',(#76),#77,.T.);
#42=PRESENTATION_STYLE_ASSIGNMENT((#78));
#43=MANIFOLD_SOLID_BREP('2020_01_15__07-50-32-720',#79);
#44=PRODUCT('2020_01_15__07-50-32-720','','PART--DESC',(#80));
#45=PRODUCT_DEFINITION('','NONE',#81,#2);
#46=AXIS2_PLACEMENT_3D('',#82,#83,#84);
#49=LENGTH_MEASURE_WITH_UNIT(LENGTH_MEASURE(1.0),#85);
#52=DIMENSIONAL_EXPONENTS(1.0,0.0,0.0,0.0,0.0,0.0,0.0);
#54=DIMENSIONAL_EXPONENTS(0.0,0.0,0.0,0.0,0.0,0.0,0.0);
#60=SURFACE_STYLE_USAGE(.BOTH.,#86);
#61=FACE_OUTER_BOUND('',#87,.T.);
#62=CYLINDRICAL_SURFACE('',#88,39.5);
#63=SURFACE_STYLE_USAGE(.BOTH.,#89);
#64=FACE_OUTER_BOUND('',#90,.T.);
#65=CONICAL_SURFACE('',#91,25.854075665,1.14544895804052);
#66=SURFACE_STYLE_USAGE(.BOTH.,#92);
#67=FACE_OUTER_BOUND('',#93,.T.);
#68=PLANE('',#94);
#69=SURFACE_STYLE_USAGE(.BOTH.,#95);
#70=FACE_OUTER_BOUND('',#96,.T.);
#71=CONICAL_SURFACE('',#97,25.854075665,1.14544895804052);
#72=SURFACE_STYLE_USAGE(.BOTH.,#98);
#73=FACE_OUTER_BOUND('',#99,.T.);
#74=CYLINDRICAL_SURFACE('',#100,39.5);
#75=SURFACE_STYLE_USAGE(.BOTH.,#101);
#76=FACE_OUTER_BOUND('',#102,.T.);
#77=PLANE('',#103);
#78=SURFACE_STYLE_USAGE(.BOTH.,#104);
#79=CLOSED_SHELL('',(#31,#33,#35,#37,#39,#41));
#80=PRODUCT_CONTEXT('',#17,'mechanical');
#81=PRODUCT_DEFINITION_FORMATION_WITH_SPECIFIED_SOURCE(' ','NONE',#44,.NOT_KNOWN.);
#82=CARTESIAN_POINT('',(0.0,0.0,0.0));
#83=DIRECTION('',(0.0,0.0,1.0));
#84=DIRECTION('',(1.0,0.0,0.0));
#85= (NAMED_UNIT(#52)LENGTH_UNIT()SI_UNIT(.MILLI.,.METRE.));
#86=SURFACE_SIDE_STYLE('',(#106));
#87=EDGE_LOOP('',(#107,#108,#109,#110));
#88=AXIS2_PLACEMENT_3D('',#111,#112,#113);
#89=SURFACE_SIDE_STYLE('',(#114));
#90=EDGE_LOOP('',(#115,#116,#117,#118));
#91=AXIS2_PLACEMENT_3D('',#119,#120,#121);
#92=SURFACE_SIDE_STYLE('',(#122));
#93=EDGE_LOOP('',(#123,#124));
#94=AXIS2_PLACEMENT_3D('',#125,#126,#127);
#95=SURFACE_SIDE_STYLE('',(#128));
#96=EDGE_LOOP('',(#129,#130,#131,#132));
#97=AXIS2_PLACEMENT_3D('',#133,#134,#135);
#98=SURFACE_SIDE_STYLE('',(#136));
#99=EDGE_LOOP('',(#137,#138,#139,#140));
#100=AXIS2_PLACEMENT_3D('',#141,#142,#143);
#101=SURFACE_SIDE_STYLE('',(#144));
#102=EDGE_LOOP('',(#145,#146));
#103=AXIS2_PLACEMENT_3D('',#147,#148,#149);
#104=SURFACE_SIDE_STYLE('',(#150));
#106=SURFACE_STYLE_FILL_AREA(#151);
#107=ORIENTED_EDGE('',*,*,#152,.F.);
#108=ORIENTED_EDGE('',*,*,#153,.T.);
#109=ORIENTED_EDGE('',*,*,#154,.F.);
#110=ORIENTED_EDGE('',*,*,#155,.F.);
#111=CARTESIAN_POINT('',(0.0,0.0,2.818372545));
#112=DIRECTION('',(0.0,0.0,-1.0));
#113=DIRECTION('',(-1.0,0.0,0.0));
#114=SURFACE_STYLE_FILL_AREA(#156);
#115=ORIENTED_EDGE('',*,*,#157,.F.);
#116=ORIENTED_EDGE('',*,*,#158,.T.);
#117=ORIENTED_EDGE('',*,*,#159,.F.);
#118=ORIENTED_EDGE('',*,*,#153,.F.);
#119=CARTESIAN_POINT('',(0.0,0.0,11.818372545));
#120=DIRECTION('',(-0.0,0.0,-1.0));
#121=DIRECTION('',(-1.0,0.0,0.0));
#122=SURFACE_STYLE_FILL_AREA(#160);
#123=ORIENTED_EDGE('',*,*,#158,.F.);
#124=ORIENTED_EDGE('',*,*,#161,.F.);
#125=CARTESIAN_POINT('',(-6.104075665,0.0,18.0));
#126=DIRECTION('',(0.0,0.0,1.0));
#127=DIRECTION('',(1.0,0.0,0.0));
#128=SURFACE_STYLE_FILL_AREA(#162);
#129=ORIENTED_EDGE('',*,*,#157,.T.);
#130=ORIENTED_EDGE('',*,*,#163,.F.);
#131=ORIENTED_EDGE('',*,*,#159,.T.);
#132=ORIENTED_EDGE('',*,*,#161,.T.);
#133=CARTESIAN_POINT('',(0.0,0.0,11.818372545));
#134=DIRECTION('',(-0.0,0.0,-1.0));
#135=DIRECTION('',(-1.0,0.0,0.0));
#136=SURFACE_STYLE_FILL_AREA(#164);
#137=ORIENTED_EDGE('',*,*,#152,.T.);
#138=ORIENTED_EDGE('',*,*,#165,.F.);
#139=ORIENTED_EDGE('',*,*,#154,.T.);
#140=ORIENTED_EDGE('',*,*,#163,.T.);
#141=CARTESIAN_POINT('',(0.0,0.0,2.818372545));
#142=DIRECTION('',(0.0,0.0,-1.0));
#143=DIRECTION('',(-1.0,0.0,0.0));
#144=SURFACE_STYLE_FILL_AREA(#166);
#145=ORIENTED_EDGE('',*,*,#155,.T.);
#146=ORIENTED_EDGE('',*,*,#165,.T.);
#147=CARTESIAN_POINT('',(-19.75,0.0,0.0));
#148=DIRECTION('',(0.0,0.0,-1.0));
#149=DIRECTION('',(-1.0,0.0,0.0));
#150=SURFACE_STYLE_FILL_AREA(#167);
#151=FILL_AREA_STYLE('',(#168));
#152=EDGE_CURVE('',#169,#170,#171,.T.);
#153=EDGE_CURVE('',#169,#172,#173,.T.);
#154=EDGE_CURVE('',#174,#172,#175,.T.);
#155=EDGE_CURVE('',#170,#174,#176,.T.);
#156=FILL_AREA_STYLE('',(#177));
#157=EDGE_CURVE('',#178,#169,#179,.T.);
#158=EDGE_CURVE('',#178,#180,#181,.T.);
#159=EDGE_CURVE('',#172,#180,#182,.T.);
#160=FILL_AREA_STYLE('',(#183));
#161=EDGE_CURVE('',#180,#178,#184,.T.);
#162=FILL_AREA_STYLE('',(#185));
#163=EDGE_CURVE('',#172,#169,#186,.T.);
#164=FILL_AREA_STYLE('',(#187));
#165=EDGE_CURVE('',#174,#170,#188,.T.);
#166=FILL_AREA_STYLE('',(#189));
#167=FILL_AREA_STYLE('',(#190));
#168=FILL_AREA_STYLE_COLOUR('',#191);
#169=VERTEX_POINT('',#192);
#170=VERTEX_POINT('',#193);
#171=LINE('',#194,#195);
#172=VERTEX_POINT('',#196);
#173=CIRCLE('',#197,39.5);
#174=VERTEX_POINT('',#198);
#175=LINE('',#199,#200);
#176=CIRCLE('',#201,39.5);
#177=FILL_AREA_STYLE_COLOUR('',#202);
#178=VERTEX_POINT('',#203);
#179=LINE('',#204,#205);
#180=VERTEX_POINT('',#206);
#181=CIRCLE('',#207,12.20815133);
#182=LINE('',#208,#209);
#183=FILL_AREA_STYLE_COLOUR('',#210);
#184=CIRCLE('',#211,12.20815133);
#185=FILL_AREA_STYLE_COLOUR('',#212);
#186=CIRCLE('',#213,39.5);
#187=FILL_AREA_STYLE_COLOUR('',#214);
#188=CIRCLE('',#215,39.5);
#189=FILL_AREA_STYLE_COLOUR('',#216);
#190=FILL_AREA_STYLE_COLOUR('',#217);
#191=COLOUR_RGB('',0.509803950786591,0.509803950786591,0.588235318660736);
#192=CARTESIAN_POINT('',(-39.5,0.0,5.63674509));
#193=CARTESIAN_POINT('',(-39.5,0.0,0.0));
#194=CARTESIAN_POINT('',(-39.5,-4.83735485663204E-015,2.818372545));
#195=VECTOR('',#218,1.0);
#196=CARTESIAN_POINT('',(39.5,4.83735485663204E-015,5.63674509));
#197=AXIS2_PLACEMENT_3D('',#219,#220,#221);
#198=CARTESIAN_POINT('',(39.5,4.83735485663204E-015,0.0));
#199=CARTESIAN_POINT('',(39.5,4.83735485663204E-015,2.818372545));
#200=VECTOR('',#222,1.0);
#201=AXIS2_PLACEMENT_3D('',#223,#224,#225);
#202=COLOUR_RGB('',0.509803950786591,0.509803950786591,0.588235318660736);
#203=CARTESIAN_POINT('',(-12.20815133,0.0,18.0));
#204=CARTESIAN_POINT('',(-25.854075665,-3.16621110080557E-015,11.818372545));
#205=VECTOR('',#226,1.0);
#206=CARTESIAN_POINT('',(12.20815133,1.4950673449791E-015,18.0));
#207=AXIS2_PLACEMENT_3D('',#227,#228,#229);
#208=CARTESIAN_POINT('',(25.854075665,3.16621110080557E-015,11.818372545));
#209=VECTOR('',#230,1.0);
#210=COLOUR_RGB('',0.509803950786591,0.509803950786591,0.588235318660736);
#211=AXIS2_PLACEMENT_3D('',#231,#232,#233);
#212=COLOUR_RGB('',0.509803950786591,0.509803950786591,0.588235318660736);
#213=AXIS2_PLACEMENT_3D('',#234,#235,#236);
#214=COLOUR_RGB('',0.509803950786591,0.509803950786591,0.588235318660736);
#215=AXIS2_PLACEMENT_3D('',#237,#238,#239);
#216=COLOUR_RGB('',0.509803950786591,0.509803950786591,0.588235318660736);
#217=COLOUR_RGB('',0.509803950786591,0.509803950786591,0.588235318660736);
#218=DIRECTION('',(0.0,0.0,-1.0));
#219=CARTESIAN_POINT('',(0.0,0.0,5.63674509));
#220=DIRECTION('',(0.0,0.0,-1.0));
#221=DIRECTION('',(-1.0,0.0,0.0));
#222=DIRECTION('',(-0.0,-0.0,1.0));
#223=CARTESIAN_POINT('',(0.0,0.0,0.0));
#224=DIRECTION('',(0.0,0.0,-1.0));
#225=DIRECTION('',(-1.0,0.0,0.0));
#226=DIRECTION('',(-0.910895450635288,-1.11552519797839E-016,-0.412637223250564));
#227=CARTESIAN_POINT('',(0.0,0.0,18.0));
#228=DIRECTION('',(0.0,0.0,-1.0));
#229=DIRECTION('',(-1.0,0.0,0.0));
#230=DIRECTION('',(-0.910895450635288,-1.11552519797839E-016,0.412637223250564));
#231=CARTESIAN_POINT('',(0.0,0.0,18.0));
#232=DIRECTION('',(0.0,0.0,-1.0));
#233=DIRECTION('',(-1.0,0.0,0.0));
#234=CARTESIAN_POINT('',(0.0,0.0,5.63674509));
#235=DIRECTION('',(0.0,0.0,-1.0));
#236=DIRECTION('',(-1.0,0.0,0.0));
#237=CARTESIAN_POINT('',(0.0,0.0,0.0));
#238=DIRECTION('',(0.0,0.0,-1.0));
#239=DIRECTION('',(-1.0,0.0,0.0));
ENDSEC;
END-ISO-10303-21;
