ISO-10303-21;
HEADER;
FILE_DESCRIPTION(('STEP AP214'),'1');
FILE_NAME('cctmp_1C1C8336-6351-44B3-909C-4E8EEED1B376_2020_11_24_12_4_13_650..stp','2020-11-24T11:04:13',('Bosch Rexroth AG'),('CADClick - www.CADClick.com'),'Spatial InterOp 3D',' ','unknown authorization - (Healing Option Enabled)');
FILE_SCHEMA(('AUTOMOTIVE_DESIGN'));
ENDSEC;
DATA;
#1=MECHANICAL_DESIGN_GEOMETRIC_PRESENTATION_REPRESENTATION(' ',(#10,#11,#12,#13,#14,#15,#16,#17,#18,#19,#20,#21,#22,#23,#24,#25,#26),#6);
#2=PRODUCT_DEFINITION_CONTEXT('',#27,'design');
#3=APPLICATION_PROTOCOL_DEFINITION('INTERNATIONAL STANDARD','automotive_design',1994,#27);
#4=PRODUCT_CATEGORY_RELATIONSHIP('NONE','NONE',#28,#29);
#5=SHAPE_DEFINITION_REPRESENTATION(#30,#31);
#6= (GEOMETRIC_REPRESENTATION_CONTEXT(3)GLOBAL_UNCERTAINTY_ASSIGNED_CONTEXT((#34))GLOBAL_UNIT_ASSIGNED_CONTEXT((#36,#37,#38))REPRESENTATION_CONTEXT('NONE','WORKSPACE'));
#10=STYLED_ITEM('',(#40),#41);
#11=STYLED_ITEM('',(#42),#43);
#12=STYLED_ITEM('',(#44),#45);
#13=STYLED_ITEM('',(#46),#47);
#14=STYLED_ITEM('',(#48),#49);
#15=STYLED_ITEM('',(#50),#51);
#16=STYLED_ITEM('',(#52),#53);
#17=STYLED_ITEM('',(#54),#55);
#18=STYLED_ITEM('',(#56),#57);
#19=STYLED_ITEM('',(#58),#59);
#20=STYLED_ITEM('',(#60),#61);
#21=STYLED_ITEM('',(#62),#63);
#22=STYLED_ITEM('',(#64),#65);
#23=STYLED_ITEM('',(#66),#67);
#24=STYLED_ITEM('',(#68),#69);
#25=STYLED_ITEM('',(#70),#71);
#26=STYLED_ITEM('',(#72),#73);
#27=APPLICATION_CONTEXT(' ');
#28=PRODUCT_CATEGORY('part','NONE');
#29=PRODUCT_RELATED_PRODUCT_CATEGORY('detail',' ',(#74));
#30=PRODUCT_DEFINITION_SHAPE('NONE','NONE',#75);
#31=ADVANCED_BREP_SHAPE_REPRESENTATION('2020_11_24__12-04-13-650',(#73,#76),#6);
#34=UNCERTAINTY_MEASURE_WITH_UNIT(LENGTH_MEASURE(1.0E-006),#36,'','');
#36= (CONVERSION_BASED_UNIT('MILLIMETRE',#79)LENGTH_UNIT()NAMED_UNIT(#82));
#37= (NAMED_UNIT(#84)PLANE_ANGLE_UNIT()SI_UNIT($,.RADIAN.));
#38= (NAMED_UNIT(#84)SOLID_ANGLE_UNIT()SI_UNIT($,.STERADIAN.));
#40=PRESENTATION_STYLE_ASSIGNMENT((#90));
#41=ADVANCED_FACE('',(#91),#92,.T.);
#42=PRESENTATION_STYLE_ASSIGNMENT((#93));
#43=ADVANCED_FACE('',(#94),#95,.T.);
#44=PRESENTATION_STYLE_ASSIGNMENT((#96));
#45=ADVANCED_FACE('',(#97),#98,.T.);
#46=PRESENTATION_STYLE_ASSIGNMENT((#99));
#47=ADVANCED_FACE('',(#100),#101,.T.);
#48=PRESENTATION_STYLE_ASSIGNMENT((#102));
#49=ADVANCED_FACE('',(#103),#104,.T.);
#50=PRESENTATION_STYLE_ASSIGNMENT((#105));
#51=ADVANCED_FACE('',(#106,#107),#108,.T.);
#52=PRESENTATION_STYLE_ASSIGNMENT((#109));
#53=ADVANCED_FACE('',(#110,#111),#112,.T.);
#54=PRESENTATION_STYLE_ASSIGNMENT((#113));
#55=ADVANCED_FACE('',(#114),#115,.T.);
#56=PRESENTATION_STYLE_ASSIGNMENT((#116));
#57=ADVANCED_FACE('',(#117),#118,.T.);
#58=PRESENTATION_STYLE_ASSIGNMENT((#119));
#59=ADVANCED_FACE('',(#120,#121),#122,.T.);
#60=PRESENTATION_STYLE_ASSIGNMENT((#123));
#61=ADVANCED_FACE('',(#124,#125),#126,.T.);
#62=PRESENTATION_STYLE_ASSIGNMENT((#127));
#63=ADVANCED_FACE('',(#128),#129,.T.);
#64=PRESENTATION_STYLE_ASSIGNMENT((#130));
#65=ADVANCED_FACE('',(#131),#132,.T.);
#66=PRESENTATION_STYLE_ASSIGNMENT((#133));
#67=ADVANCED_FACE('',(#134),#135,.T.);
#68=PRESENTATION_STYLE_ASSIGNMENT((#136));
#69=ADVANCED_FACE('',(#137),#138,.T.);
#70=PRESENTATION_STYLE_ASSIGNMENT((#139));
#71=ADVANCED_FACE('',(#140),#141,.T.);
#72=PRESENTATION_STYLE_ASSIGNMENT((#142));
#73=MANIFOLD_SOLID_BREP('2020_11_24__12-04-13-650',#143);
#74=PRODUCT('2020_11_24__12-04-13-650','','PART--DESC',(#144));
#75=PRODUCT_DEFINITION('','NONE',#145,#2);
#76=AXIS2_PLACEMENT_3D('',#146,#147,#148);
#79=LENGTH_MEASURE_WITH_UNIT(LENGTH_MEASURE(1.0),#149);
#82=DIMENSIONAL_EXPONENTS(1.0,0.0,0.0,0.0,0.0,0.0,0.0);
#84=DIMENSIONAL_EXPONENTS(0.0,0.0,0.0,0.0,0.0,0.0,0.0);
#90=SURFACE_STYLE_USAGE(.BOTH.,#150);
#91=FACE_OUTER_BOUND('',#151,.T.);
#92=CYLINDRICAL_SURFACE('',#152,4.0);
#93=SURFACE_STYLE_USAGE(.BOTH.,#153);
#94=FACE_OUTER_BOUND('',#154,.T.);
#95=CYLINDRICAL_SURFACE('',#155,4.0);
#96=SURFACE_STYLE_USAGE(.BOTH.,#156);
#97=FACE_OUTER_BOUND('',#157,.T.);
#98=CYLINDRICAL_SURFACE('',#158,10.0);
#99=SURFACE_STYLE_USAGE(.BOTH.,#159);
#100=FACE_OUTER_BOUND('',#160,.T.);
#101=CYLINDRICAL_SURFACE('',#161,10.0);
#102=SURFACE_STYLE_USAGE(.BOTH.,#162);
#103=FACE_OUTER_BOUND('',#163,.T.);
#104=CYLINDRICAL_SURFACE('',#164,20.0);
#105=SURFACE_STYLE_USAGE(.BOTH.,#165);
#106=FACE_OUTER_BOUND('',#166,.T.);
#107=FACE_BOUND('',#167,.T.);
#108=PLANE('',#168);
#109=SURFACE_STYLE_USAGE(.BOTH.,#169);
#110=FACE_OUTER_BOUND('',#170,.T.);
#111=FACE_BOUND('',#171,.T.);
#112=PLANE('',#172);
#113=SURFACE_STYLE_USAGE(.BOTH.,#173);
#114=FACE_OUTER_BOUND('',#174,.T.);
#115=CYLINDRICAL_SURFACE('',#175,20.0);
#116=SURFACE_STYLE_USAGE(.BOTH.,#176);
#117=FACE_OUTER_BOUND('',#177,.T.);
#118=CYLINDRICAL_SURFACE('',#178,10.0);
#119=SURFACE_STYLE_USAGE(.BOTH.,#179);
#120=FACE_OUTER_BOUND('',#180,.T.);
#121=FACE_BOUND('',#181,.T.);
#122=PLANE('',#182);
#123=SURFACE_STYLE_USAGE(.BOTH.,#183);
#124=FACE_OUTER_BOUND('',#184,.T.);
#125=FACE_BOUND('',#185,.T.);
#126=PLANE('',#186);
#127=SURFACE_STYLE_USAGE(.BOTH.,#187);
#128=FACE_OUTER_BOUND('',#188,.T.);
#129=CYLINDRICAL_SURFACE('',#189,10.0);
#130=SURFACE_STYLE_USAGE(.BOTH.,#190);
#131=FACE_OUTER_BOUND('',#191,.T.);
#132=CYLINDRICAL_SURFACE('',#192,4.0);
#133=SURFACE_STYLE_USAGE(.BOTH.,#193);
#134=FACE_OUTER_BOUND('',#194,.T.);
#135=CYLINDRICAL_SURFACE('',#195,4.0);
#136=SURFACE_STYLE_USAGE(.BOTH.,#196);
#137=FACE_OUTER_BOUND('',#197,.T.);
#138=PLANE('',#198);
#139=SURFACE_STYLE_USAGE(.BOTH.,#199);
#140=FACE_OUTER_BOUND('',#200,.T.);
#141=PLANE('',#201);
#142=SURFACE_STYLE_USAGE(.BOTH.,#202);
#143=CLOSED_SHELL('',(#41,#43,#45,#47,#49,#51,#53,#55,#57,#59,#61,#63,#65,#67,#69,#71));
#144=PRODUCT_CONTEXT('',#27,'mechanical');
#145=PRODUCT_DEFINITION_FORMATION_WITH_SPECIFIED_SOURCE(' ','NONE',#74,.NOT_KNOWN.);
#146=CARTESIAN_POINT('',(0.0,0.0,0.0));
#147=DIRECTION('',(0.0,0.0,1.0));
#148=DIRECTION('',(1.0,0.0,0.0));
#149= (NAMED_UNIT(#82)LENGTH_UNIT()SI_UNIT(.MILLI.,.METRE.));
#150=SURFACE_SIDE_STYLE('',(#204));
#151=EDGE_LOOP('',(#205,#206,#207,#208));
#152=AXIS2_PLACEMENT_3D('',#209,#210,#211);
#153=SURFACE_SIDE_STYLE('',(#212));
#154=EDGE_LOOP('',(#213,#214,#215,#216));
#155=AXIS2_PLACEMENT_3D('',#217,#218,#219);
#156=SURFACE_SIDE_STYLE('',(#220));
#157=EDGE_LOOP('',(#221,#222,#223,#224));
#158=AXIS2_PLACEMENT_3D('',#225,#226,#227);
#159=SURFACE_SIDE_STYLE('',(#228));
#160=EDGE_LOOP('',(#229,#230,#231,#232));
#161=AXIS2_PLACEMENT_3D('',#233,#234,#235);
#162=SURFACE_SIDE_STYLE('',(#236));
#163=EDGE_LOOP('',(#237,#238,#239,#240));
#164=AXIS2_PLACEMENT_3D('',#241,#242,#243);
#165=SURFACE_SIDE_STYLE('',(#244));
#166=EDGE_LOOP('',(#245,#246));
#167=EDGE_LOOP('',(#247,#248));
#168=AXIS2_PLACEMENT_3D('',#249,#250,#251);
#169=SURFACE_SIDE_STYLE('',(#252));
#170=EDGE_LOOP('',(#253,#254));
#171=EDGE_LOOP('',(#255,#256));
#172=AXIS2_PLACEMENT_3D('',#257,#258,#259);
#173=SURFACE_SIDE_STYLE('',(#260));
#174=EDGE_LOOP('',(#261,#262,#263,#264));
#175=AXIS2_PLACEMENT_3D('',#265,#266,#267);
#176=SURFACE_SIDE_STYLE('',(#268));
#177=EDGE_LOOP('',(#269,#270,#271,#272));
#178=AXIS2_PLACEMENT_3D('',#273,#274,#275);
#179=SURFACE_SIDE_STYLE('',(#276));
#180=EDGE_LOOP('',(#277,#278));
#181=EDGE_LOOP('',(#279,#280));
#182=AXIS2_PLACEMENT_3D('',#281,#282,#283);
#183=SURFACE_SIDE_STYLE('',(#284));
#184=EDGE_LOOP('',(#285,#286));
#185=EDGE_LOOP('',(#287,#288));
#186=AXIS2_PLACEMENT_3D('',#289,#290,#291);
#187=SURFACE_SIDE_STYLE('',(#292));
#188=EDGE_LOOP('',(#293,#294,#295,#296));
#189=AXIS2_PLACEMENT_3D('',#297,#298,#299);
#190=SURFACE_SIDE_STYLE('',(#300));
#191=EDGE_LOOP('',(#301,#302,#303,#304));
#192=AXIS2_PLACEMENT_3D('',#305,#306,#307);
#193=SURFACE_SIDE_STYLE('',(#308));
#194=EDGE_LOOP('',(#309,#310,#311,#312));
#195=AXIS2_PLACEMENT_3D('',#313,#314,#315);
#196=SURFACE_SIDE_STYLE('',(#316));
#197=EDGE_LOOP('',(#317,#318));
#198=AXIS2_PLACEMENT_3D('',#319,#320,#321);
#199=SURFACE_SIDE_STYLE('',(#322));
#200=EDGE_LOOP('',(#323,#324));
#201=AXIS2_PLACEMENT_3D('',#325,#326,#327);
#202=SURFACE_SIDE_STYLE('',(#328));
#204=SURFACE_STYLE_FILL_AREA(#329);
#205=ORIENTED_EDGE('',*,*,#330,.F.);
#206=ORIENTED_EDGE('',*,*,#331,.F.);
#207=ORIENTED_EDGE('',*,*,#332,.F.);
#208=ORIENTED_EDGE('',*,*,#333,.T.);
#209=CARTESIAN_POINT('',(-262.5,0.0,0.0));
#210=DIRECTION('',(-1.0,0.0,0.0));
#211=DIRECTION('',(0.0,-1.0,0.0));
#212=SURFACE_STYLE_FILL_AREA(#334);
#213=ORIENTED_EDGE('',*,*,#335,.F.);
#214=ORIENTED_EDGE('',*,*,#336,.T.);
#215=ORIENTED_EDGE('',*,*,#337,.F.);
#216=ORIENTED_EDGE('',*,*,#338,.F.);
#217=CARTESIAN_POINT('',(-262.5,0.0,0.0));
#218=DIRECTION('',(-1.0,0.0,0.0));
#219=DIRECTION('',(0.0,-1.0,0.0));
#220=SURFACE_STYLE_FILL_AREA(#339);
#221=ORIENTED_EDGE('',*,*,#340,.F.);
#222=ORIENTED_EDGE('',*,*,#341,.F.);
#223=ORIENTED_EDGE('',*,*,#342,.F.);
#224=ORIENTED_EDGE('',*,*,#343,.T.);
#225=CARTESIAN_POINT('',(-262.5,0.0,0.0));
#226=DIRECTION('',(-1.0,0.0,0.0));
#227=DIRECTION('',(0.0,-1.0,0.0));
#228=SURFACE_STYLE_FILL_AREA(#344);
#229=ORIENTED_EDGE('',*,*,#345,.F.);
#230=ORIENTED_EDGE('',*,*,#346,.T.);
#231=ORIENTED_EDGE('',*,*,#347,.F.);
#232=ORIENTED_EDGE('',*,*,#348,.F.);
#233=CARTESIAN_POINT('',(-262.5,0.0,0.0));
#234=DIRECTION('',(-1.0,0.0,0.0));
#235=DIRECTION('',(0.0,-1.0,0.0));
#236=SURFACE_STYLE_FILL_AREA(#349);
#237=ORIENTED_EDGE('',*,*,#350,.F.);
#238=ORIENTED_EDGE('',*,*,#351,.F.);
#239=ORIENTED_EDGE('',*,*,#352,.F.);
#240=ORIENTED_EDGE('',*,*,#353,.F.);
#241=CARTESIAN_POINT('',(-262.5,0.0,0.0));
#242=DIRECTION('',(-1.0,0.0,0.0));
#243=DIRECTION('',(0.0,-1.0,0.0));
#244=SURFACE_STYLE_FILL_AREA(#354);
#245=ORIENTED_EDGE('',*,*,#355,.T.);
#246=ORIENTED_EDGE('',*,*,#351,.T.);
#247=ORIENTED_EDGE('',*,*,#343,.F.);
#248=ORIENTED_EDGE('',*,*,#356,.F.);
#249=CARTESIAN_POINT('',(-2.5,0.0,0.0));
#250=DIRECTION('',(1.0,0.0,0.0));
#251=DIRECTION('',(0.0,1.0,0.0));
#252=SURFACE_STYLE_FILL_AREA(#357);
#253=ORIENTED_EDGE('',*,*,#353,.T.);
#254=ORIENTED_EDGE('',*,*,#358,.T.);
#255=ORIENTED_EDGE('',*,*,#359,.F.);
#256=ORIENTED_EDGE('',*,*,#346,.F.);
#257=CARTESIAN_POINT('',(-522.5,0.0,0.0));
#258=DIRECTION('',(-1.0,0.0,0.0));
#259=DIRECTION('',(0.0,-1.0,0.0));
#260=SURFACE_STYLE_FILL_AREA(#360);
#261=ORIENTED_EDGE('',*,*,#350,.T.);
#262=ORIENTED_EDGE('',*,*,#358,.F.);
#263=ORIENTED_EDGE('',*,*,#352,.T.);
#264=ORIENTED_EDGE('',*,*,#355,.F.);
#265=CARTESIAN_POINT('',(-262.5,0.0,0.0));
#266=DIRECTION('',(-1.0,0.0,0.0));
#267=DIRECTION('',(0.0,-1.0,0.0));
#268=SURFACE_STYLE_FILL_AREA(#361);
#269=ORIENTED_EDGE('',*,*,#345,.T.);
#270=ORIENTED_EDGE('',*,*,#362,.F.);
#271=ORIENTED_EDGE('',*,*,#347,.T.);
#272=ORIENTED_EDGE('',*,*,#359,.T.);
#273=CARTESIAN_POINT('',(-262.5,0.0,0.0));
#274=DIRECTION('',(-1.0,0.0,0.0));
#275=DIRECTION('',(0.0,-1.0,0.0));
#276=SURFACE_STYLE_FILL_AREA(#363);
#277=ORIENTED_EDGE('',*,*,#364,.T.);
#278=ORIENTED_EDGE('',*,*,#341,.T.);
#279=ORIENTED_EDGE('',*,*,#333,.F.);
#280=ORIENTED_EDGE('',*,*,#365,.F.);
#281=CARTESIAN_POINT('',(0.0,0.0,0.0));
#282=DIRECTION('',(1.0,0.0,0.0));
#283=DIRECTION('',(0.0,1.0,0.0));
#284=SURFACE_STYLE_FILL_AREA(#366);
#285=ORIENTED_EDGE('',*,*,#348,.T.);
#286=ORIENTED_EDGE('',*,*,#362,.T.);
#287=ORIENTED_EDGE('',*,*,#367,.F.);
#288=ORIENTED_EDGE('',*,*,#336,.F.);
#289=CARTESIAN_POINT('',(-525.0,0.0,0.0));
#290=DIRECTION('',(-1.0,0.0,0.0));
#291=DIRECTION('',(0.0,-1.0,0.0));
#292=SURFACE_STYLE_FILL_AREA(#368);
#293=ORIENTED_EDGE('',*,*,#340,.T.);
#294=ORIENTED_EDGE('',*,*,#356,.T.);
#295=ORIENTED_EDGE('',*,*,#342,.T.);
#296=ORIENTED_EDGE('',*,*,#364,.F.);
#297=CARTESIAN_POINT('',(-262.5,0.0,0.0));
#298=DIRECTION('',(-1.0,0.0,0.0));
#299=DIRECTION('',(0.0,-1.0,0.0));
#300=SURFACE_STYLE_FILL_AREA(#369);
#301=ORIENTED_EDGE('',*,*,#335,.T.);
#302=ORIENTED_EDGE('',*,*,#370,.F.);
#303=ORIENTED_EDGE('',*,*,#337,.T.);
#304=ORIENTED_EDGE('',*,*,#367,.T.);
#305=CARTESIAN_POINT('',(-262.5,0.0,0.0));
#306=DIRECTION('',(-1.0,0.0,0.0));
#307=DIRECTION('',(0.0,-1.0,0.0));
#308=SURFACE_STYLE_FILL_AREA(#371);
#309=ORIENTED_EDGE('',*,*,#330,.T.);
#310=ORIENTED_EDGE('',*,*,#365,.T.);
#311=ORIENTED_EDGE('',*,*,#332,.T.);
#312=ORIENTED_EDGE('',*,*,#372,.F.);
#313=CARTESIAN_POINT('',(-262.5,0.0,0.0));
#314=DIRECTION('',(-1.0,0.0,0.0));
#315=DIRECTION('',(0.0,-1.0,0.0));
#316=SURFACE_STYLE_FILL_AREA(#373);
#317=ORIENTED_EDGE('',*,*,#372,.T.);
#318=ORIENTED_EDGE('',*,*,#331,.T.);
#319=CARTESIAN_POINT('',(10.0,0.0,0.0));
#320=DIRECTION('',(1.0,0.0,0.0));
#321=DIRECTION('',(0.0,1.0,0.0));
#322=SURFACE_STYLE_FILL_AREA(#374);
#323=ORIENTED_EDGE('',*,*,#338,.T.);
#324=ORIENTED_EDGE('',*,*,#370,.T.);
#325=CARTESIAN_POINT('',(-535.0,0.0,0.0));
#326=DIRECTION('',(-1.0,0.0,0.0));
#327=DIRECTION('',(0.0,-1.0,0.0));
#328=SURFACE_STYLE_FILL_AREA(#375);
#329=FILL_AREA_STYLE('',(#376));
#330=EDGE_CURVE('',#377,#378,#379,.T.);
#331=EDGE_CURVE('',#380,#377,#381,.T.);
#332=EDGE_CURVE('',#382,#380,#383,.T.);
#333=EDGE_CURVE('',#382,#378,#384,.T.);
#334=FILL_AREA_STYLE('',(#385));
#335=EDGE_CURVE('',#386,#387,#388,.T.);
#336=EDGE_CURVE('',#386,#389,#390,.T.);
#337=EDGE_CURVE('',#391,#389,#392,.T.);
#338=EDGE_CURVE('',#387,#391,#393,.T.);
#339=FILL_AREA_STYLE('',(#394));
#340=EDGE_CURVE('',#395,#396,#397,.T.);
#341=EDGE_CURVE('',#398,#395,#399,.T.);
#342=EDGE_CURVE('',#400,#398,#401,.T.);
#343=EDGE_CURVE('',#400,#396,#402,.T.);
#344=FILL_AREA_STYLE('',(#403));
#345=EDGE_CURVE('',#404,#405,#406,.T.);
#346=EDGE_CURVE('',#404,#407,#408,.T.);
#347=EDGE_CURVE('',#409,#407,#410,.T.);
#348=EDGE_CURVE('',#405,#409,#411,.T.);
#349=FILL_AREA_STYLE('',(#412));
#350=EDGE_CURVE('',#413,#414,#415,.T.);
#351=EDGE_CURVE('',#416,#413,#417,.T.);
#352=EDGE_CURVE('',#418,#416,#419,.T.);
#353=EDGE_CURVE('',#414,#418,#420,.T.);
#354=FILL_AREA_STYLE('',(#421));
#355=EDGE_CURVE('',#413,#416,#422,.T.);
#356=EDGE_CURVE('',#396,#400,#423,.T.);
#357=FILL_AREA_STYLE('',(#424));
#358=EDGE_CURVE('',#418,#414,#425,.T.);
#359=EDGE_CURVE('',#407,#404,#426,.T.);
#360=FILL_AREA_STYLE('',(#427));
#361=FILL_AREA_STYLE('',(#428));
#362=EDGE_CURVE('',#409,#405,#429,.T.);
#363=FILL_AREA_STYLE('',(#430));
#364=EDGE_CURVE('',#395,#398,#431,.T.);
#365=EDGE_CURVE('',#378,#382,#432,.T.);
#366=FILL_AREA_STYLE('',(#433));
#367=EDGE_CURVE('',#389,#386,#434,.T.);
#368=FILL_AREA_STYLE('',(#435));
#369=FILL_AREA_STYLE('',(#436));
#370=EDGE_CURVE('',#391,#387,#437,.T.);
#371=FILL_AREA_STYLE('',(#438));
#372=EDGE_CURVE('',#377,#380,#439,.T.);
#373=FILL_AREA_STYLE('',(#440));
#374=FILL_AREA_STYLE('',(#441));
#375=FILL_AREA_STYLE('',(#442));
#376=FILL_AREA_STYLE_COLOUR('',#443);
#377=VERTEX_POINT('',#444);
#378=VERTEX_POINT('',#445);
#379=LINE('',#446,#447);
#380=VERTEX_POINT('',#448);
#381=CIRCLE('',#449,4.0);
#382=VERTEX_POINT('',#450);
#383=LINE('',#451,#452);
#384=CIRCLE('',#453,4.0);
#385=FILL_AREA_STYLE_COLOUR('',#454);
#386=VERTEX_POINT('',#455);
#387=VERTEX_POINT('',#456);
#388=LINE('',#457,#458);
#389=VERTEX_POINT('',#459);
#390=CIRCLE('',#460,4.0);
#391=VERTEX_POINT('',#461);
#392=LINE('',#462,#463);
#393=CIRCLE('',#464,4.0);
#394=FILL_AREA_STYLE_COLOUR('',#465);
#395=VERTEX_POINT('',#466);
#396=VERTEX_POINT('',#467);
#397=LINE('',#468,#469);
#398=VERTEX_POINT('',#470);
#399=CIRCLE('',#471,10.0);
#400=VERTEX_POINT('',#472);
#401=LINE('',#473,#474);
#402=CIRCLE('',#475,10.0);
#403=FILL_AREA_STYLE_COLOUR('',#476);
#404=VERTEX_POINT('',#477);
#405=VERTEX_POINT('',#478);
#406=LINE('',#479,#480);
#407=VERTEX_POINT('',#481);
#408=CIRCLE('',#482,10.0);
#409=VERTEX_POINT('',#483);
#410=LINE('',#484,#485);
#411=CIRCLE('',#486,10.0);
#412=FILL_AREA_STYLE_COLOUR('',#487);
#413=VERTEX_POINT('',#488);
#414=VERTEX_POINT('',#489);
#415=LINE('',#490,#491);
#416=VERTEX_POINT('',#492);
#417=CIRCLE('',#493,20.0);
#418=VERTEX_POINT('',#494);
#419=LINE('',#495,#496);
#420=CIRCLE('',#497,20.0);
#421=FILL_AREA_STYLE_COLOUR('',#498);
#422=CIRCLE('',#499,20.0);
#423=CIRCLE('',#500,10.0);
#424=FILL_AREA_STYLE_COLOUR('',#501);
#425=CIRCLE('',#502,20.0);
#426=CIRCLE('',#503,10.0);
#427=FILL_AREA_STYLE_COLOUR('',#504);
#428=FILL_AREA_STYLE_COLOUR('',#505);
#429=CIRCLE('',#506,10.0);
#430=FILL_AREA_STYLE_COLOUR('',#507);
#431=CIRCLE('',#508,10.0);
#432=CIRCLE('',#509,4.0);
#433=FILL_AREA_STYLE_COLOUR('',#510);
#434=CIRCLE('',#511,4.0);
#435=FILL_AREA_STYLE_COLOUR('',#512);
#436=FILL_AREA_STYLE_COLOUR('',#513);
#437=CIRCLE('',#514,4.0);
#438=FILL_AREA_STYLE_COLOUR('',#515);
#439=CIRCLE('',#516,4.0);
#440=FILL_AREA_STYLE_COLOUR('',#517);
#441=FILL_AREA_STYLE_COLOUR('',#518);
#442=FILL_AREA_STYLE_COLOUR('',#519);
#443=COLOUR_RGB('',0.509803950786591,0.509803950786591,0.588235318660736);
#444=CARTESIAN_POINT('',(10.0,-4.0,0.0));
#445=CARTESIAN_POINT('',(0.0,-4.0,-4.89858719658941E-016));
#446=CARTESIAN_POINT('',(5.0,-4.0,-4.89858719658941E-016));
#447=VECTOR('',#520,1.0);
#448=CARTESIAN_POINT('',(10.0,4.0,4.89858719658941E-016));
#449=AXIS2_PLACEMENT_3D('',#521,#522,#523);
#450=CARTESIAN_POINT('',(0.0,4.0,4.89858719658941E-016));
#451=CARTESIAN_POINT('',(5.0,4.0,4.89858719658941E-016));
#452=VECTOR('',#524,1.0);
#453=AXIS2_PLACEMENT_3D('',#525,#526,#527);
#454=COLOUR_RGB('',0.509803950786591,0.509803950786591,0.588235318660736);
#455=CARTESIAN_POINT('',(-525.0,-4.0,-4.89858719658941E-016));
#456=CARTESIAN_POINT('',(-535.0,-4.0,0.0));
#457=CARTESIAN_POINT('',(-530.0,-4.0,-4.89858719658941E-016));
#458=VECTOR('',#528,1.0);
#459=CARTESIAN_POINT('',(-525.0,4.0,-4.89858719658941E-016));
#460=AXIS2_PLACEMENT_3D('',#529,#530,#531);
#461=CARTESIAN_POINT('',(-535.0,4.0,4.89858719658941E-016));
#462=CARTESIAN_POINT('',(-530.0,4.0,4.89858719658941E-016));
#463=VECTOR('',#532,1.0);
#464=AXIS2_PLACEMENT_3D('',#533,#534,#535);
#465=COLOUR_RGB('',0.509803950786591,0.509803950786591,0.588235318660736);
#466=CARTESIAN_POINT('',(0.0,-10.0,0.0));
#467=CARTESIAN_POINT('',(-2.5,-10.0,-1.22464679914735E-015));
#468=CARTESIAN_POINT('',(-1.25,-10.0,-1.22464679914735E-015));
#469=VECTOR('',#536,1.0);
#470=CARTESIAN_POINT('',(0.0,10.0,1.22464679914735E-015));
#471=AXIS2_PLACEMENT_3D('',#537,#538,#539);
#472=CARTESIAN_POINT('',(-2.5,10.0,1.22464679914735E-015));
#473=CARTESIAN_POINT('',(-1.25,10.0,1.22464679914735E-015));
#474=VECTOR('',#540,1.0);
#475=AXIS2_PLACEMENT_3D('',#541,#542,#543);
#476=COLOUR_RGB('',0.509803950786591,0.509803950786591,0.588235318660736);
#477=CARTESIAN_POINT('',(-522.5,-10.0,-1.22464679914735E-015));
#478=CARTESIAN_POINT('',(-525.0,-10.0,0.0));
#479=CARTESIAN_POINT('',(-523.75,-10.0,-1.22464679914735E-015));
#480=VECTOR('',#544,1.0);
#481=CARTESIAN_POINT('',(-522.5,10.0,-1.22464679914735E-015));
#482=AXIS2_PLACEMENT_3D('',#545,#546,#547);
#483=CARTESIAN_POINT('',(-525.0,10.0,1.22464679914735E-015));
#484=CARTESIAN_POINT('',(-523.75,10.0,1.22464679914735E-015));
#485=VECTOR('',#548,1.0);
#486=AXIS2_PLACEMENT_3D('',#549,#550,#551);
#487=COLOUR_RGB('',0.509803950786591,0.509803950786591,0.588235318660736);
#488=CARTESIAN_POINT('',(-2.5,-20.0,0.0));
#489=CARTESIAN_POINT('',(-522.5,-20.0,0.0));
#490=CARTESIAN_POINT('',(-262.5,-20.0,-2.44929359829471E-015));
#491=VECTOR('',#552,1.0);
#492=CARTESIAN_POINT('',(-2.5,20.0,2.44929359829471E-015));
#493=AXIS2_PLACEMENT_3D('',#553,#554,#555);
#494=CARTESIAN_POINT('',(-522.5,20.0,2.44929359829471E-015));
#495=CARTESIAN_POINT('',(-262.5,20.0,2.44929359829471E-015));
#496=VECTOR('',#556,1.0);
#497=AXIS2_PLACEMENT_3D('',#557,#558,#559);
#498=COLOUR_RGB('',0.509803950786591,0.509803950786591,0.588235318660736);
#499=AXIS2_PLACEMENT_3D('',#560,#561,#562);
#500=AXIS2_PLACEMENT_3D('',#563,#564,#565);
#501=COLOUR_RGB('',0.509803950786591,0.509803950786591,0.588235318660736);
#502=AXIS2_PLACEMENT_3D('',#566,#567,#568);
#503=AXIS2_PLACEMENT_3D('',#569,#570,#571);
#504=COLOUR_RGB('',0.509803950786591,0.509803950786591,0.588235318660736);
#505=COLOUR_RGB('',0.509803950786591,0.509803950786591,0.588235318660736);
#506=AXIS2_PLACEMENT_3D('',#572,#573,#574);
#507=COLOUR_RGB('',0.509803950786591,0.509803950786591,0.588235318660736);
#508=AXIS2_PLACEMENT_3D('',#575,#576,#577);
#509=AXIS2_PLACEMENT_3D('',#578,#579,#580);
#510=COLOUR_RGB('',0.509803950786591,0.509803950786591,0.588235318660736);
#511=AXIS2_PLACEMENT_3D('',#581,#582,#583);
#512=COLOUR_RGB('',0.509803950786591,0.509803950786591,0.588235318660736);
#513=COLOUR_RGB('',0.509803950786591,0.509803950786591,0.588235318660736);
#514=AXIS2_PLACEMENT_3D('',#584,#585,#586);
#515=COLOUR_RGB('',0.509803950786591,0.509803950786591,0.588235318660736);
#516=AXIS2_PLACEMENT_3D('',#587,#588,#589);
#517=COLOUR_RGB('',0.509803950786591,0.509803950786591,0.588235318660736);
#518=COLOUR_RGB('',0.509803950786591,0.509803950786591,0.588235318660736);
#519=COLOUR_RGB('',0.509803950786591,0.509803950786591,0.588235318660736);
#520=DIRECTION('',(-1.0,0.0,0.0));
#521=CARTESIAN_POINT('',(10.0,0.0,0.0));
#522=DIRECTION('',(1.0,0.0,0.0));
#523=DIRECTION('',(0.0,-1.0,0.0));
#524=DIRECTION('',(1.0,-0.0,-0.0));
#525=CARTESIAN_POINT('',(0.0,0.0,0.0));
#526=DIRECTION('',(1.0,0.0,0.0));
#527=DIRECTION('',(0.0,-1.0,0.0));
#528=DIRECTION('',(-1.0,0.0,0.0));
#529=CARTESIAN_POINT('',(-525.0,0.0,0.0));
#530=DIRECTION('',(-1.0,0.0,0.0));
#531=DIRECTION('',(0.0,-1.0,0.0));
#532=DIRECTION('',(1.0,-0.0,-0.0));
#533=CARTESIAN_POINT('',(-535.0,0.0,0.0));
#534=DIRECTION('',(-1.0,0.0,0.0));
#535=DIRECTION('',(0.0,-1.0,0.0));
#536=DIRECTION('',(-1.0,0.0,0.0));
#537=CARTESIAN_POINT('',(0.0,0.0,0.0));
#538=DIRECTION('',(1.0,0.0,0.0));
#539=DIRECTION('',(0.0,-1.0,0.0));
#540=DIRECTION('',(1.0,-0.0,-0.0));
#541=CARTESIAN_POINT('',(-2.5,0.0,0.0));
#542=DIRECTION('',(1.0,0.0,0.0));
#543=DIRECTION('',(0.0,-1.0,0.0));
#544=DIRECTION('',(-1.0,0.0,0.0));
#545=CARTESIAN_POINT('',(-522.5,0.0,0.0));
#546=DIRECTION('',(-1.0,0.0,0.0));
#547=DIRECTION('',(0.0,-1.0,0.0));
#548=DIRECTION('',(1.0,-0.0,-0.0));
#549=CARTESIAN_POINT('',(-525.0,0.0,0.0));
#550=DIRECTION('',(-1.0,0.0,0.0));
#551=DIRECTION('',(0.0,-1.0,0.0));
#552=DIRECTION('',(-1.0,0.0,0.0));
#553=CARTESIAN_POINT('',(-2.5,0.0,0.0));
#554=DIRECTION('',(1.0,0.0,0.0));
#555=DIRECTION('',(0.0,-1.0,0.0));
#556=DIRECTION('',(1.0,-0.0,-0.0));
#557=CARTESIAN_POINT('',(-522.5,0.0,0.0));
#558=DIRECTION('',(-1.0,0.0,0.0));
#559=DIRECTION('',(0.0,-1.0,0.0));
#560=CARTESIAN_POINT('',(-2.5,0.0,0.0));
#561=DIRECTION('',(1.0,0.0,0.0));
#562=DIRECTION('',(0.0,-1.0,0.0));
#563=CARTESIAN_POINT('',(-2.5,0.0,0.0));
#564=DIRECTION('',(1.0,0.0,0.0));
#565=DIRECTION('',(0.0,-1.0,0.0));
#566=CARTESIAN_POINT('',(-522.5,0.0,0.0));
#567=DIRECTION('',(-1.0,0.0,0.0));
#568=DIRECTION('',(0.0,-1.0,0.0));
#569=CARTESIAN_POINT('',(-522.5,0.0,0.0));
#570=DIRECTION('',(-1.0,0.0,0.0));
#571=DIRECTION('',(0.0,-1.0,0.0));
#572=CARTESIAN_POINT('',(-525.0,0.0,0.0));
#573=DIRECTION('',(-1.0,0.0,0.0));
#574=DIRECTION('',(0.0,-1.0,0.0));
#575=CARTESIAN_POINT('',(0.0,0.0,0.0));
#576=DIRECTION('',(1.0,0.0,0.0));
#577=DIRECTION('',(0.0,-1.0,0.0));
#578=CARTESIAN_POINT('',(0.0,0.0,0.0));
#579=DIRECTION('',(1.0,0.0,0.0));
#580=DIRECTION('',(0.0,-1.0,0.0));
#581=CARTESIAN_POINT('',(-525.0,0.0,0.0));
#582=DIRECTION('',(-1.0,0.0,0.0));
#583=DIRECTION('',(0.0,-1.0,0.0));
#584=CARTESIAN_POINT('',(-535.0,0.0,0.0));
#585=DIRECTION('',(-1.0,0.0,0.0));
#586=DIRECTION('',(0.0,-1.0,0.0));
#587=CARTESIAN_POINT('',(10.0,0.0,0.0));
#588=DIRECTION('',(1.0,0.0,0.0));
#589=DIRECTION('',(0.0,-1.0,0.0));
ENDSEC;
END-ISO-10303-21;
