ISO-10303-21;
HEADER;
FILE_DESCRIPTION(('STEP AP214'),'1');
FILE_NAME('cctmp_6B393309-3F7C-4B53-8A79-0A949363327F_2020_1_15_7_38_1_246..stp','2020-01-15T06:38:01',('Bosch Rexroth AG'),('CADClick - www.CADClick.com'),'Spatial InterOp 3D',' ','unknown authorization - (Healing Option Enabled)');
FILE_SCHEMA(('AUTOMOTIVE_DESIGN'));
ENDSEC;
DATA;
#1=MECHANICAL_DESIGN_GEOMETRIC_PRESENTATION_REPRESENTATION(' ',(#10,#11,#12,#13,#14,#15,#16,#17,#18),#6);
#2=PRODUCT_DEFINITION_CONTEXT('',#19,'design');
#3=APPLICATION_PROTOCOL_DEFINITION('INTERNATIONAL STANDARD','automotive_design',1994,#19);
#4=PRODUCT_CATEGORY_RELATIONSHIP('NONE','NONE',#20,#21);
#5=SHAPE_DEFINITION_REPRESENTATION(#22,#23);
#6= (GEOMETRIC_REPRESENTATION_CONTEXT(3)GLOBAL_UNCERTAINTY_ASSIGNED_CONTEXT((#26))GLOBAL_UNIT_ASSIGNED_CONTEXT((#28,#29,#30))REPRESENTATION_CONTEXT('NONE','WORKSPACE'));
#10=STYLED_ITEM('',(#32),#33);
#11=STYLED_ITEM('',(#34),#35);
#12=STYLED_ITEM('',(#36),#37);
#13=STYLED_ITEM('',(#38),#39);
#14=STYLED_ITEM('',(#40),#41);
#15=STYLED_ITEM('',(#42),#43);
#16=STYLED_ITEM('',(#44),#45);
#17=STYLED_ITEM('',(#46),#47);
#18=STYLED_ITEM('',(#48),#49);
#19=APPLICATION_CONTEXT(' ');
#20=PRODUCT_CATEGORY('part','NONE');
#21=PRODUCT_RELATED_PRODUCT_CATEGORY('detail',' ',(#50));
#22=PRODUCT_DEFINITION_SHAPE('NONE','NONE',#51);
#23=ADVANCED_BREP_SHAPE_REPRESENTATION('2020_01_15__07-38-01-246',(#49,#52),#6);
#26=UNCERTAINTY_MEASURE_WITH_UNIT(LENGTH_MEASURE(1.0E-006),#28,'','');
#28= (CONVERSION_BASED_UNIT('MILLIMETRE',#55)LENGTH_UNIT()NAMED_UNIT(#58));
#29= (NAMED_UNIT(#60)PLANE_ANGLE_UNIT()SI_UNIT($,.RADIAN.));
#30= (NAMED_UNIT(#60)SOLID_ANGLE_UNIT()SI_UNIT($,.STERADIAN.));
#32=PRESENTATION_STYLE_ASSIGNMENT((#66));
#33=ADVANCED_FACE('NONE',(#67),#68,.T.);
#34=PRESENTATION_STYLE_ASSIGNMENT((#69));
#35=ADVANCED_FACE('NONE',(#70),#71,.T.);
#36=PRESENTATION_STYLE_ASSIGNMENT((#72));
#37=ADVANCED_FACE('NONE',(#73),#74,.T.);
#38=PRESENTATION_STYLE_ASSIGNMENT((#75));
#39=ADVANCED_FACE('NONE',(#76),#77,.T.);
#40=PRESENTATION_STYLE_ASSIGNMENT((#78));
#41=ADVANCED_FACE('NONE',(#79),#80,.F.);
#42=PRESENTATION_STYLE_ASSIGNMENT((#81));
#43=ADVANCED_FACE('NONE',(#82),#83,.T.);
#44=PRESENTATION_STYLE_ASSIGNMENT((#84));
#45=ADVANCED_FACE('NONE',(#85),#86,.T.);
#46=PRESENTATION_STYLE_ASSIGNMENT((#87));
#47=ADVANCED_FACE('NONE',(#88),#89,.T.);
#48=PRESENTATION_STYLE_ASSIGNMENT((#90));
#49=MANIFOLD_SOLID_BREP('2020_01_15__07-38-01-246',#91);
#50=PRODUCT('2020_01_15__07-38-01-246','','PART--DESC',(#92));
#51=PRODUCT_DEFINITION('','NONE',#93,#2);
#52=AXIS2_PLACEMENT_3D('',#94,#95,#96);
#55=LENGTH_MEASURE_WITH_UNIT(LENGTH_MEASURE(1.0),#97);
#58=DIMENSIONAL_EXPONENTS(1.0,0.0,0.0,0.0,0.0,0.0,0.0);
#60=DIMENSIONAL_EXPONENTS(0.0,0.0,0.0,0.0,0.0,0.0,0.0);
#66=SURFACE_STYLE_USAGE(.BOTH.,#98);
#67=FACE_OUTER_BOUND('',#99,.T.);
#68=PLANE('',#100);
#69=SURFACE_STYLE_USAGE(.BOTH.,#101);
#70=FACE_OUTER_BOUND('',#102,.T.);
#71=PLANE('',#103);
#72=SURFACE_STYLE_USAGE(.BOTH.,#104);
#73=FACE_OUTER_BOUND('',#105,.T.);
#74=PLANE('',#106);
#75=SURFACE_STYLE_USAGE(.BOTH.,#107);
#76=FACE_OUTER_BOUND('',#108,.T.);
#77=PLANE('',#109);
#78=SURFACE_STYLE_USAGE(.BOTH.,#110);
#79=FACE_OUTER_BOUND('',#111,.T.);
#80=PLANE('',#112);
#81=SURFACE_STYLE_USAGE(.BOTH.,#113);
#82=FACE_OUTER_BOUND('',#114,.T.);
#83=PLANE('',#115);
#84=SURFACE_STYLE_USAGE(.BOTH.,#116);
#85=FACE_OUTER_BOUND('',#117,.T.);
#86=PLANE('',#118);
#87=SURFACE_STYLE_USAGE(.BOTH.,#119);
#88=FACE_OUTER_BOUND('',#120,.T.);
#89=PLANE('',#121);
#90=SURFACE_STYLE_USAGE(.BOTH.,#122);
#91=CLOSED_SHELL('',(#33,#35,#37,#39,#41,#43,#45,#47));
#92=PRODUCT_CONTEXT('',#19,'mechanical');
#93=PRODUCT_DEFINITION_FORMATION_WITH_SPECIFIED_SOURCE(' ','NONE',#50,.NOT_KNOWN.);
#94=CARTESIAN_POINT('',(0.0,0.0,0.0));
#95=DIRECTION('',(0.0,0.0,1.0));
#96=DIRECTION('',(1.0,0.0,0.0));
#97= (NAMED_UNIT(#58)LENGTH_UNIT()SI_UNIT(.MILLI.,.METRE.));
#98=SURFACE_SIDE_STYLE('',(#124));
#99=EDGE_LOOP('',(#125,#126,#127,#128));
#100=AXIS2_PLACEMENT_3D('',#129,#130,#131);
#101=SURFACE_SIDE_STYLE('',(#132));
#102=EDGE_LOOP('',(#133,#134,#135,#136));
#103=AXIS2_PLACEMENT_3D('',#137,#138,#139);
#104=SURFACE_SIDE_STYLE('',(#140));
#105=EDGE_LOOP('',(#141,#142,#143,#144));
#106=AXIS2_PLACEMENT_3D('',#145,#146,#147);
#107=SURFACE_SIDE_STYLE('',(#148));
#108=EDGE_LOOP('',(#149,#150,#151,#152));
#109=AXIS2_PLACEMENT_3D('',#153,#154,#155);
#110=SURFACE_SIDE_STYLE('',(#156));
#111=EDGE_LOOP('',(#157,#158,#159,#160,#161,#162));
#112=AXIS2_PLACEMENT_3D('',#163,#164,#165);
#113=SURFACE_SIDE_STYLE('',(#166));
#114=EDGE_LOOP('',(#167,#168,#169,#170));
#115=AXIS2_PLACEMENT_3D('',#171,#172,#173);
#116=SURFACE_SIDE_STYLE('',(#174));
#117=EDGE_LOOP('',(#175,#176,#177,#178,#179,#180));
#118=AXIS2_PLACEMENT_3D('',#181,#182,#183);
#119=SURFACE_SIDE_STYLE('',(#184));
#120=EDGE_LOOP('',(#185,#186,#187,#188));
#121=AXIS2_PLACEMENT_3D('',#189,#190,#191);
#122=SURFACE_SIDE_STYLE('',(#192));
#124=SURFACE_STYLE_FILL_AREA(#193);
#125=ORIENTED_EDGE('',*,*,#194,.F.);
#126=ORIENTED_EDGE('',*,*,#195,.F.);
#127=ORIENTED_EDGE('',*,*,#196,.F.);
#128=ORIENTED_EDGE('',*,*,#197,.T.);
#129=CARTESIAN_POINT('',(0.0,15.0,42.5));
#130=DIRECTION('',(-2.75474107278186E-048,1.0,-1.22460635382238E-016));
#131=DIRECTION('',(1.0,0.0,-2.24949108273321E-032));
#132=SURFACE_STYLE_FILL_AREA(#198);
#133=ORIENTED_EDGE('',*,*,#199,.F.);
#134=ORIENTED_EDGE('',*,*,#200,.F.);
#135=ORIENTED_EDGE('',*,*,#194,.T.);
#136=ORIENTED_EDGE('',*,*,#201,.T.);
#137=CARTESIAN_POINT('',(4.0,15.0,42.5));
#138=DIRECTION('',(1.0,2.0660558045864E-048,2.32378705442314E-080));
#139=DIRECTION('',(0.0,-1.1247455413666E-032,1.0));
#140=SURFACE_STYLE_FILL_AREA(#202);
#141=ORIENTED_EDGE('',*,*,#203,.F.);
#142=ORIENTED_EDGE('',*,*,#204,.F.);
#143=ORIENTED_EDGE('',*,*,#199,.T.);
#144=ORIENTED_EDGE('',*,*,#205,.T.);
#145=CARTESIAN_POINT('',(4.0,-22.5,42.5));
#146=DIRECTION('',(-2.75474107278186E-048,1.0,-1.22460635382238E-016));
#147=DIRECTION('',(1.0,0.0,-2.24949108273321E-032));
#148=SURFACE_STYLE_FILL_AREA(#206);
#149=ORIENTED_EDGE('',*,*,#207,.F.);
#150=ORIENTED_EDGE('',*,*,#208,.F.);
#151=ORIENTED_EDGE('',*,*,#203,.T.);
#152=ORIENTED_EDGE('',*,*,#209,.T.);
#153=CARTESIAN_POINT('',(47.0,-22.5,42.5));
#154=DIRECTION('',(1.0,2.0660558045864E-048,2.32378705442314E-080));
#155=DIRECTION('',(0.0,-1.1247455413666E-032,1.0));
#156=SURFACE_STYLE_FILL_AREA(#210);
#157=ORIENTED_EDGE('',*,*,#211,.F.);
#158=ORIENTED_EDGE('',*,*,#209,.F.);
#159=ORIENTED_EDGE('',*,*,#205,.F.);
#160=ORIENTED_EDGE('',*,*,#201,.F.);
#161=ORIENTED_EDGE('',*,*,#197,.F.);
#162=ORIENTED_EDGE('',*,*,#212,.F.);
#163=CARTESIAN_POINT('',(33.0,0.0,42.5));
#164=DIRECTION('',(0.0,-1.22460635382238E-016,-1.0));
#165=DIRECTION('',(0.0,-1.0,1.22460635382238E-016));
#166=SURFACE_STYLE_FILL_AREA(#213);
#167=ORIENTED_EDGE('',*,*,#196,.T.);
#168=ORIENTED_EDGE('',*,*,#214,.F.);
#169=ORIENTED_EDGE('',*,*,#215,.F.);
#170=ORIENTED_EDGE('',*,*,#212,.T.);
#171=CARTESIAN_POINT('',(0.0,-26.5,42.5));
#172=DIRECTION('',(-1.0,-1.83690953073357E-016,2.24949108273321E-032));
#173=DIRECTION('',(-1.83690953073357E-016,1.0,0.0));
#174=SURFACE_STYLE_FILL_AREA(#216);
#175=ORIENTED_EDGE('',*,*,#217,.F.);
#176=ORIENTED_EDGE('',*,*,#214,.T.);
#177=ORIENTED_EDGE('',*,*,#195,.T.);
#178=ORIENTED_EDGE('',*,*,#200,.T.);
#179=ORIENTED_EDGE('',*,*,#204,.T.);
#180=ORIENTED_EDGE('',*,*,#208,.T.);
#181=CARTESIAN_POINT('',(33.0,0.0,-42.5));
#182=DIRECTION('',(0.0,-1.22460635382238E-016,-1.0));
#183=DIRECTION('',(0.0,-1.0,1.22460635382238E-016));
#184=SURFACE_STYLE_FILL_AREA(#218);
#185=ORIENTED_EDGE('',*,*,#215,.T.);
#186=ORIENTED_EDGE('',*,*,#217,.T.);
#187=ORIENTED_EDGE('',*,*,#207,.T.);
#188=ORIENTED_EDGE('',*,*,#211,.T.);
#189=CARTESIAN_POINT('',(47.0,-26.5,42.5));
#190=DIRECTION('',(1.83690953073357E-016,-1.0,1.22460635382238E-016));
#191=DIRECTION('',(0.0,-1.22460635382238E-016,-1.0));
#192=SURFACE_STYLE_FILL_AREA(#219);
#193=FILL_AREA_STYLE('',(#220));
#194=EDGE_CURVE('NONE',#221,#222,#223,.T.);
#195=EDGE_CURVE('NONE',#224,#221,#225,.T.);
#196=EDGE_CURVE('NONE',#226,#224,#227,.T.);
#197=EDGE_CURVE('NONE',#226,#222,#228,.T.);
#198=FILL_AREA_STYLE('',(#229));
#199=EDGE_CURVE('NONE',#230,#231,#232,.T.);
#200=EDGE_CURVE('NONE',#221,#230,#233,.T.);
#201=EDGE_CURVE('NONE',#222,#231,#234,.T.);
#202=FILL_AREA_STYLE('',(#235));
#203=EDGE_CURVE('NONE',#236,#237,#238,.T.);
#204=EDGE_CURVE('NONE',#230,#236,#239,.T.);
#205=EDGE_CURVE('NONE',#231,#237,#240,.T.);
#206=FILL_AREA_STYLE('',(#241));
#207=EDGE_CURVE('NONE',#242,#243,#244,.T.);
#208=EDGE_CURVE('NONE',#236,#242,#245,.T.);
#209=EDGE_CURVE('NONE',#237,#243,#246,.T.);
#210=FILL_AREA_STYLE('',(#247));
#211=EDGE_CURVE('NONE',#243,#248,#249,.T.);
#212=EDGE_CURVE('NONE',#248,#226,#250,.T.);
#213=FILL_AREA_STYLE('',(#251));
#214=EDGE_CURVE('NONE',#252,#224,#253,.T.);
#215=EDGE_CURVE('NONE',#248,#252,#254,.T.);
#216=FILL_AREA_STYLE('',(#255));
#217=EDGE_CURVE('NONE',#252,#242,#256,.T.);
#218=FILL_AREA_STYLE('',(#257));
#219=FILL_AREA_STYLE('',(#258));
#220=FILL_AREA_STYLE_COLOUR('',#259);
#221=VERTEX_POINT('NONE',#260);
#222=VERTEX_POINT('NONE',#261);
#223=LINE('',#262,#263);
#224=VERTEX_POINT('NONE',#264);
#225=LINE('',#265,#266);
#226=VERTEX_POINT('NONE',#267);
#227=LINE('',#268,#269);
#228=LINE('',#270,#271);
#229=FILL_AREA_STYLE_COLOUR('',#272);
#230=VERTEX_POINT('NONE',#273);
#231=VERTEX_POINT('NONE',#274);
#232=LINE('',#275,#276);
#233=LINE('',#277,#278);
#234=LINE('',#279,#280);
#235=FILL_AREA_STYLE_COLOUR('',#281);
#236=VERTEX_POINT('NONE',#282);
#237=VERTEX_POINT('NONE',#283);
#238=LINE('',#284,#285);
#239=LINE('',#286,#287);
#240=LINE('',#288,#289);
#241=FILL_AREA_STYLE_COLOUR('',#290);
#242=VERTEX_POINT('NONE',#291);
#243=VERTEX_POINT('NONE',#292);
#244=LINE('',#293,#294);
#245=LINE('',#295,#296);
#246=LINE('',#297,#298);
#247=FILL_AREA_STYLE_COLOUR('',#299);
#248=VERTEX_POINT('NONE',#300);
#249=LINE('',#301,#302);
#250=LINE('',#303,#304);
#251=FILL_AREA_STYLE_COLOUR('',#305);
#252=VERTEX_POINT('NONE',#306);
#253=LINE('',#307,#308);
#254=LINE('',#309,#310);
#255=FILL_AREA_STYLE_COLOUR('',#311);
#256=LINE('',#312,#313);
#257=FILL_AREA_STYLE_COLOUR('',#314);
#258=FILL_AREA_STYLE_COLOUR('',#315);
#259=COLOUR_RGB('',0.509803950786591,0.509803950786591,0.588235318660736);
#260=CARTESIAN_POINT('',(4.0,15.0,-42.5));
#261=CARTESIAN_POINT('',(4.0,15.0,42.5));
#262=CARTESIAN_POINT('',(4.0,15.0,42.5));
#263=VECTOR('',#316,1000.0);
#264=CARTESIAN_POINT('',(-3.81158727627215E-015,15.0,-42.5));
#265=CARTESIAN_POINT('',(33.0,15.0,-42.5));
#266=VECTOR('',#317,1000.0);
#267=CARTESIAN_POINT('',(-2.85869045720411E-015,15.0,42.5));
#268=CARTESIAN_POINT('',(-7.6231745525443E-015,15.0,42.5));
#269=VECTOR('',#318,1000.0);
#270=CARTESIAN_POINT('',(33.0,15.0,42.5));
#271=VECTOR('',#319,1000.0);
#272=COLOUR_RGB('',0.509803950786591,0.509803950786591,0.588235318660736);
#273=CARTESIAN_POINT('',(4.0,-22.5,-42.5));
#274=CARTESIAN_POINT('',(4.0,-22.5,42.5));
#275=CARTESIAN_POINT('',(4.0,-22.5,42.5));
#276=VECTOR('',#320,1000.0);
#277=CARTESIAN_POINT('',(4.0,0.0,-42.5));
#278=VECTOR('',#321,1000.0);
#279=CARTESIAN_POINT('',(4.0,0.0,42.5));
#280=VECTOR('',#322,1000.0);
#281=COLOUR_RGB('',0.509803950786591,0.509803950786591,0.588235318660736);
#282=CARTESIAN_POINT('',(47.0,-22.5,-42.5));
#283=CARTESIAN_POINT('',(47.0,-22.5,42.5));
#284=CARTESIAN_POINT('',(47.0,-22.5,42.5));
#285=VECTOR('',#323,1000.0);
#286=CARTESIAN_POINT('',(33.0,-22.5,-42.5));
#287=VECTOR('',#324,1000.0);
#288=CARTESIAN_POINT('',(33.0,-22.5,42.5));
#289=VECTOR('',#325,1000.0);
#290=COLOUR_RGB('',0.509803950786591,0.509803950786591,0.588235318660736);
#291=CARTESIAN_POINT('',(47.0,-26.5,-42.5));
#292=CARTESIAN_POINT('',(47.0,-26.5,42.5));
#293=CARTESIAN_POINT('',(47.0,-26.5,42.5));
#294=VECTOR('',#326,1000.0);
#295=CARTESIAN_POINT('',(47.0,0.0,-42.5));
#296=VECTOR('',#327,1000.0);
#297=CARTESIAN_POINT('',(47.0,0.0,42.5));
#298=VECTOR('',#328,1000.0);
#299=COLOUR_RGB('',0.509803950786591,0.509803950786591,0.588235318660736);
#300=CARTESIAN_POINT('',(1.59326504310453E-031,-26.5,42.5));
#301=CARTESIAN_POINT('',(47.0,-26.5,42.5));
#302=VECTOR('',#329,1000.0);
#303=CARTESIAN_POINT('',(0.0,-26.5,42.5));
#304=VECTOR('',#330,1000.0);
#305=COLOUR_RGB('',0.509803950786591,0.509803950786591,0.588235318660736);
#306=CARTESIAN_POINT('',(-3.98372274000304E-031,-26.5,-42.5));
#307=CARTESIAN_POINT('',(0.0,0.0,-42.5));
#308=VECTOR('',#331,1000.0);
#309=CARTESIAN_POINT('',(0.0,-26.5,42.5));
#310=VECTOR('',#332,1000.0);
#311=COLOUR_RGB('',0.509803950786591,0.509803950786591,0.588235318660736);
#312=CARTESIAN_POINT('',(47.0,-26.5,-42.5));
#313=VECTOR('',#333,1000.0);
#314=COLOUR_RGB('',0.509803950786591,0.509803950786591,0.588235318660736);
#315=COLOUR_RGB('',0.509803950786591,0.509803950786591,0.588235318660736);
#316=DIRECTION('',(-1.1247455413666E-032,0.0,1.0));
#317=DIRECTION('',(1.0,0.0,0.0));
#318=DIRECTION('',(-2.24949108273321E-032,-4.13211160917279E-048,-1.0));
#319=DIRECTION('',(1.0,0.0,0.0));
#320=DIRECTION('',(0.0,1.22460635382238E-016,1.0));
#321=DIRECTION('',(0.0,-1.0,1.22460635382238E-016));
#322=DIRECTION('',(0.0,-1.0,1.22460635382238E-016));
#323=DIRECTION('',(-1.1247455413666E-032,0.0,1.0));
#324=DIRECTION('',(1.0,0.0,0.0));
#325=DIRECTION('',(1.0,0.0,0.0));
#326=DIRECTION('',(-2.24949108273321E-032,1.22460635382238E-016,1.0));
#327=DIRECTION('',(0.0,-1.0,1.22460635382238E-016));
#328=DIRECTION('',(0.0,-1.0,1.22460635382238E-016));
#329=DIRECTION('',(-1.0,-1.83690953073357E-016,0.0));
#330=DIRECTION('',(-1.83690953073357E-016,1.0,0.0));
#331=DIRECTION('',(0.0,1.0,-1.22460635382238E-016));
#332=DIRECTION('',(2.24949108273321E-032,-1.22460635382238E-016,-1.0));
#333=DIRECTION('',(1.0,1.83690953073357E-016,0.0));
#334=PRESENTATION_LAYER_ASSIGNMENT('-1','NONE',(#33,#35,#37,#39,#41,#43,#45,#47,#49));
ENDSEC;
END-ISO-10303-21;
