ISO-10303-21;
HEADER;
FILE_DESCRIPTION(('STEP AP214'),'1');
FILE_NAME('cctmp_A2A326EB-539F-4435-97A6-AC53F081D878_2020_1_15_7_36_9_453..stp','2020-01-15T06:36:09',('Bosch Rexroth AG'),('CADClick - www.CADClick.com'),'Spatial InterOp 3D',' ','unknown authorization - (Healing Option Enabled)');
FILE_SCHEMA(('AUTOMOTIVE_DESIGN'));
ENDSEC;
DATA;
#1=MECHANICAL_DESIGN_GEOMETRIC_PRESENTATION_REPRESENTATION(' ',(#10,#11,#12,#13,#14,#15,#16,#17,#18,#19),#6);
#2=PRODUCT_DEFINITION_CONTEXT('',#20,'design');
#3=APPLICATION_PROTOCOL_DEFINITION('INTERNATIONAL STANDARD','automotive_design',1994,#20);
#4=PRODUCT_CATEGORY_RELATIONSHIP('NONE','NONE',#21,#22);
#5=SHAPE_DEFINITION_REPRESENTATION(#23,#24);
#6= (GEOMETRIC_REPRESENTATION_CONTEXT(3)GLOBAL_UNCERTAINTY_ASSIGNED_CONTEXT((#27))GLOBAL_UNIT_ASSIGNED_CONTEXT((#29,#30,#31))REPRESENTATION_CONTEXT('NONE','WORKSPACE'));
#10=STYLED_ITEM('',(#33),#34);
#11=STYLED_ITEM('',(#35),#36);
#12=STYLED_ITEM('',(#37),#38);
#13=STYLED_ITEM('',(#39),#40);
#14=STYLED_ITEM('',(#41),#42);
#15=STYLED_ITEM('',(#43),#44);
#16=STYLED_ITEM('',(#45),#46);
#17=STYLED_ITEM('',(#47),#48);
#18=STYLED_ITEM('',(#49),#50);
#19=STYLED_ITEM('',(#51),#52);
#20=APPLICATION_CONTEXT(' ');
#21=PRODUCT_CATEGORY('part','NONE');
#22=PRODUCT_RELATED_PRODUCT_CATEGORY('detail',' ',(#53));
#23=PRODUCT_DEFINITION_SHAPE('NONE','NONE',#54);
#24=ADVANCED_BREP_SHAPE_REPRESENTATION('2020_01_15__07-36-09-453',(#52,#55),#6);
#27=UNCERTAINTY_MEASURE_WITH_UNIT(LENGTH_MEASURE(1.0E-006),#29,'','');
#29= (CONVERSION_BASED_UNIT('MILLIMETRE',#58)LENGTH_UNIT()NAMED_UNIT(#61));
#30= (NAMED_UNIT(#63)PLANE_ANGLE_UNIT()SI_UNIT($,.RADIAN.));
#31= (NAMED_UNIT(#63)SOLID_ANGLE_UNIT()SI_UNIT($,.STERADIAN.));
#33=PRESENTATION_STYLE_ASSIGNMENT((#69));
#34=ADVANCED_FACE('NONE',(#70),#71,.T.);
#35=PRESENTATION_STYLE_ASSIGNMENT((#72));
#36=ADVANCED_FACE('NONE',(#73),#74,.T.);
#37=PRESENTATION_STYLE_ASSIGNMENT((#75));
#38=ADVANCED_FACE('NONE',(#76),#77,.T.);
#39=PRESENTATION_STYLE_ASSIGNMENT((#78));
#40=ADVANCED_FACE('NONE',(#79),#80,.T.);
#41=PRESENTATION_STYLE_ASSIGNMENT((#81));
#42=ADVANCED_FACE('NONE',(#82),#83,.T.);
#43=PRESENTATION_STYLE_ASSIGNMENT((#84));
#44=ADVANCED_FACE('NONE',(#85),#86,.F.);
#45=PRESENTATION_STYLE_ASSIGNMENT((#87));
#46=ADVANCED_FACE('NONE',(#88),#89,.T.);
#47=PRESENTATION_STYLE_ASSIGNMENT((#90));
#48=ADVANCED_FACE('NONE',(#91),#92,.T.);
#49=PRESENTATION_STYLE_ASSIGNMENT((#93));
#50=ADVANCED_FACE('NONE',(#94),#95,.T.);
#51=PRESENTATION_STYLE_ASSIGNMENT((#96));
#52=MANIFOLD_SOLID_BREP('2020_01_15__07-36-09-453',#97);
#53=PRODUCT('2020_01_15__07-36-09-453','','PART--DESC',(#98));
#54=PRODUCT_DEFINITION('','NONE',#99,#2);
#55=AXIS2_PLACEMENT_3D('',#100,#101,#102);
#58=LENGTH_MEASURE_WITH_UNIT(LENGTH_MEASURE(1.0),#103);
#61=DIMENSIONAL_EXPONENTS(1.0,0.0,0.0,0.0,0.0,0.0,0.0);
#63=DIMENSIONAL_EXPONENTS(0.0,0.0,0.0,0.0,0.0,0.0,0.0);
#69=SURFACE_STYLE_USAGE(.BOTH.,#104);
#70=FACE_OUTER_BOUND('',#105,.T.);
#71=CYLINDRICAL_SURFACE('',#106,15.0);
#72=SURFACE_STYLE_USAGE(.BOTH.,#107);
#73=FACE_OUTER_BOUND('',#108,.T.);
#74=PLANE('',#109);
#75=SURFACE_STYLE_USAGE(.BOTH.,#110);
#76=FACE_OUTER_BOUND('',#111,.T.);
#77=PLANE('',#112);
#78=SURFACE_STYLE_USAGE(.BOTH.,#113);
#79=FACE_OUTER_BOUND('',#114,.T.);
#80=PLANE('',#115);
#81=SURFACE_STYLE_USAGE(.BOTH.,#116);
#82=FACE_OUTER_BOUND('',#117,.T.);
#83=PLANE('',#118);
#84=SURFACE_STYLE_USAGE(.BOTH.,#119);
#85=FACE_OUTER_BOUND('',#120,.T.);
#86=PLANE('',#121);
#87=SURFACE_STYLE_USAGE(.BOTH.,#122);
#88=FACE_OUTER_BOUND('',#123,.T.);
#89=CYLINDRICAL_SURFACE('',#124,15.0);
#90=SURFACE_STYLE_USAGE(.BOTH.,#125);
#91=FACE_OUTER_BOUND('',#126,.T.);
#92=PLANE('',#127);
#93=SURFACE_STYLE_USAGE(.BOTH.,#128);
#94=FACE_OUTER_BOUND('',#129,.T.);
#95=PLANE('',#130);
#96=SURFACE_STYLE_USAGE(.BOTH.,#131);
#97=CLOSED_SHELL('',(#34,#36,#38,#40,#42,#44,#46,#48,#50));
#98=PRODUCT_CONTEXT('',#20,'mechanical');
#99=PRODUCT_DEFINITION_FORMATION_WITH_SPECIFIED_SOURCE(' ','NONE',#53,.NOT_KNOWN.);
#100=CARTESIAN_POINT('',(0.0,0.0,0.0));
#101=DIRECTION('',(0.0,0.0,1.0));
#102=DIRECTION('',(1.0,0.0,0.0));
#103= (NAMED_UNIT(#61)LENGTH_UNIT()SI_UNIT(.MILLI.,.METRE.));
#104=SURFACE_SIDE_STYLE('',(#133));
#105=EDGE_LOOP('',(#134,#135,#136,#137));
#106=AXIS2_PLACEMENT_3D('',#138,#139,#140);
#107=SURFACE_SIDE_STYLE('',(#141));
#108=EDGE_LOOP('',(#142,#143,#144,#145,#146));
#109=AXIS2_PLACEMENT_3D('',#147,#148,#149);
#110=SURFACE_SIDE_STYLE('',(#150));
#111=EDGE_LOOP('',(#151,#152,#153,#154));
#112=AXIS2_PLACEMENT_3D('',#155,#156,#157);
#113=SURFACE_SIDE_STYLE('',(#158));
#114=EDGE_LOOP('',(#159,#160,#161,#162));
#115=AXIS2_PLACEMENT_3D('',#163,#164,#165);
#116=SURFACE_SIDE_STYLE('',(#166));
#117=EDGE_LOOP('',(#167,#168,#169,#170));
#118=AXIS2_PLACEMENT_3D('',#171,#172,#173);
#119=SURFACE_SIDE_STYLE('',(#174));
#120=EDGE_LOOP('',(#175,#176,#177,#178,#179,#180));
#121=AXIS2_PLACEMENT_3D('',#181,#182,#183);
#122=SURFACE_SIDE_STYLE('',(#184));
#123=EDGE_LOOP('',(#185,#186,#187,#188));
#124=AXIS2_PLACEMENT_3D('',#189,#190,#191);
#125=SURFACE_SIDE_STYLE('',(#192));
#126=EDGE_LOOP('',(#193,#194,#195,#196,#197,#198));
#127=AXIS2_PLACEMENT_3D('',#199,#200,#201);
#128=SURFACE_SIDE_STYLE('',(#202));
#129=EDGE_LOOP('',(#203,#204,#205,#206,#207));
#130=AXIS2_PLACEMENT_3D('',#208,#209,#210);
#131=SURFACE_SIDE_STYLE('',(#211));
#133=SURFACE_STYLE_FILL_AREA(#212);
#134=ORIENTED_EDGE('',*,*,#213,.T.);
#135=ORIENTED_EDGE('',*,*,#214,.T.);
#136=ORIENTED_EDGE('',*,*,#215,.F.);
#137=ORIENTED_EDGE('',*,*,#216,.T.);
#138=CARTESIAN_POINT('',(0.0,11.2042682926829,35.0));
#139=DIRECTION('',(0.0,-1.0,0.0));
#140=DIRECTION('',(0.0,0.0,1.0));
#141=SURFACE_STYLE_FILL_AREA(#217);
#142=ORIENTED_EDGE('',*,*,#213,.F.);
#143=ORIENTED_EDGE('',*,*,#218,.T.);
#144=ORIENTED_EDGE('',*,*,#219,.F.);
#145=ORIENTED_EDGE('',*,*,#220,.F.);
#146=ORIENTED_EDGE('',*,*,#221,.F.);
#147=CARTESIAN_POINT('',(-15.0,13.0,5.0));
#148=DIRECTION('',(0.0,-1.0,0.0));
#149=DIRECTION('',(0.0,0.0,-1.0));
#150=SURFACE_STYLE_FILL_AREA(#222);
#151=ORIENTED_EDGE('',*,*,#223,.F.);
#152=ORIENTED_EDGE('',*,*,#219,.T.);
#153=ORIENTED_EDGE('',*,*,#224,.T.);
#154=ORIENTED_EDGE('',*,*,#225,.F.);
#155=CARTESIAN_POINT('',(-15.0,-14.0,5.0));
#156=DIRECTION('',(-5.39760534693403E-079,4.93038065763132E-032,1.0));
#157=DIRECTION('',(1.0,1.09476442525376E-047,0.0));
#158=SURFACE_STYLE_FILL_AREA(#226);
#159=ORIENTED_EDGE('',*,*,#227,.F.);
#160=ORIENTED_EDGE('',*,*,#225,.T.);
#161=ORIENTED_EDGE('',*,*,#228,.T.);
#162=ORIENTED_EDGE('',*,*,#229,.F.);
#163=CARTESIAN_POINT('',(-15.0,-14.0,0.0));
#164=DIRECTION('',(0.0,-1.0,0.0));
#165=DIRECTION('',(0.0,0.0,-1.0));
#166=SURFACE_STYLE_FILL_AREA(#230);
#167=ORIENTED_EDGE('',*,*,#231,.F.);
#168=ORIENTED_EDGE('',*,*,#229,.T.);
#169=ORIENTED_EDGE('',*,*,#232,.T.);
#170=ORIENTED_EDGE('',*,*,#233,.F.);
#171=CARTESIAN_POINT('',(-15.0,18.0,0.0));
#172=DIRECTION('',(2.22044604925031E-016,0.0,-1.0));
#173=DIRECTION('',(0.0,-1.0,0.0));
#174=SURFACE_STYLE_FILL_AREA(#234);
#175=ORIENTED_EDGE('',*,*,#232,.F.);
#176=ORIENTED_EDGE('',*,*,#228,.F.);
#177=ORIENTED_EDGE('',*,*,#224,.F.);
#178=ORIENTED_EDGE('',*,*,#218,.F.);
#179=ORIENTED_EDGE('',*,*,#216,.F.);
#180=ORIENTED_EDGE('',*,*,#235,.F.);
#181=CARTESIAN_POINT('',(-15.0,9.40853658536585,17.5914634146341));
#182=DIRECTION('',(1.0,5.39760534693403E-079,1.09476442525376E-047));
#183=DIRECTION('',(0.0,1.0,-4.93038065763132E-032));
#184=SURFACE_STYLE_FILL_AREA(#236);
#185=ORIENTED_EDGE('',*,*,#214,.F.);
#186=ORIENTED_EDGE('',*,*,#221,.T.);
#187=ORIENTED_EDGE('',*,*,#237,.F.);
#188=ORIENTED_EDGE('',*,*,#238,.F.);
#189=CARTESIAN_POINT('',(0.0,11.2042682926829,35.0));
#190=DIRECTION('',(0.0,-1.0,0.0));
#191=DIRECTION('',(0.0,0.0,1.0));
#192=SURFACE_STYLE_FILL_AREA(#239);
#193=ORIENTED_EDGE('',*,*,#223,.T.);
#194=ORIENTED_EDGE('',*,*,#227,.T.);
#195=ORIENTED_EDGE('',*,*,#231,.T.);
#196=ORIENTED_EDGE('',*,*,#240,.F.);
#197=ORIENTED_EDGE('',*,*,#237,.T.);
#198=ORIENTED_EDGE('',*,*,#220,.T.);
#199=CARTESIAN_POINT('',(15.0,9.40853658536585,17.5914634146341));
#200=DIRECTION('',(1.0,5.39760534693403E-079,1.09476442525376E-047));
#201=DIRECTION('',(0.0,1.0,-4.93038065763132E-032));
#202=SURFACE_STYLE_FILL_AREA(#241);
#203=ORIENTED_EDGE('',*,*,#215,.T.);
#204=ORIENTED_EDGE('',*,*,#238,.T.);
#205=ORIENTED_EDGE('',*,*,#240,.T.);
#206=ORIENTED_EDGE('',*,*,#233,.T.);
#207=ORIENTED_EDGE('',*,*,#235,.T.);
#208=CARTESIAN_POINT('',(-15.0,18.0,50.0));
#209=DIRECTION('',(-8.43189553201992E-116,1.0,7.24149659089601E-034));
#210=DIRECTION('',(1.0,0.0,1.16438576282981E-082));
#211=SURFACE_STYLE_FILL_AREA(#242);
#212=FILL_AREA_STYLE('',(#243));
#213=EDGE_CURVE('NONE',#244,#245,#246,.T.);
#214=EDGE_CURVE('NONE',#245,#247,#248,.T.);
#215=EDGE_CURVE('NONE',#249,#247,#250,.T.);
#216=EDGE_CURVE('NONE',#249,#244,#251,.T.);
#217=FILL_AREA_STYLE('',(#252));
#218=EDGE_CURVE('NONE',#244,#253,#254,.T.);
#219=EDGE_CURVE('NONE',#255,#253,#256,.T.);
#220=EDGE_CURVE('NONE',#257,#255,#258,.T.);
#221=EDGE_CURVE('NONE',#245,#257,#259,.T.);
#222=FILL_AREA_STYLE('',(#260));
#223=EDGE_CURVE('NONE',#255,#261,#262,.T.);
#224=EDGE_CURVE('NONE',#253,#263,#264,.T.);
#225=EDGE_CURVE('NONE',#261,#263,#265,.T.);
#226=FILL_AREA_STYLE('',(#266));
#227=EDGE_CURVE('NONE',#261,#267,#268,.T.);
#228=EDGE_CURVE('NONE',#263,#269,#270,.T.);
#229=EDGE_CURVE('NONE',#267,#269,#271,.T.);
#230=FILL_AREA_STYLE('',(#272));
#231=EDGE_CURVE('NONE',#267,#273,#274,.T.);
#232=EDGE_CURVE('NONE',#269,#275,#276,.T.);
#233=EDGE_CURVE('NONE',#273,#275,#277,.T.);
#234=FILL_AREA_STYLE('',(#278));
#235=EDGE_CURVE('NONE',#275,#249,#279,.T.);
#236=FILL_AREA_STYLE('',(#280));
#237=EDGE_CURVE('NONE',#281,#257,#282,.T.);
#238=EDGE_CURVE('NONE',#247,#281,#283,.T.);
#239=FILL_AREA_STYLE('',(#284));
#240=EDGE_CURVE('NONE',#281,#273,#285,.T.);
#241=FILL_AREA_STYLE('',(#286));
#242=FILL_AREA_STYLE('',(#287));
#243=FILL_AREA_STYLE_COLOUR('',#288);
#244=VERTEX_POINT('NONE',#289);
#245=VERTEX_POINT('NONE',#290);
#246=CIRCLE('',#291,15.0);
#247=VERTEX_POINT('NONE',#292);
#248=LINE('',#293,#294);
#249=VERTEX_POINT('NONE',#295);
#250=CIRCLE('',#296,15.0);
#251=LINE('',#297,#298);
#252=FILL_AREA_STYLE_COLOUR('',#299);
#253=VERTEX_POINT('NONE',#300);
#254=LINE('',#301,#302);
#255=VERTEX_POINT('NONE',#303);
#256=LINE('',#304,#305);
#257=VERTEX_POINT('NONE',#306);
#258=LINE('',#307,#308);
#259=CIRCLE('',#309,15.0);
#260=FILL_AREA_STYLE_COLOUR('',#310);
#261=VERTEX_POINT('NONE',#311);
#262=LINE('',#312,#313);
#263=VERTEX_POINT('NONE',#314);
#264=LINE('',#315,#316);
#265=LINE('',#317,#318);
#266=FILL_AREA_STYLE_COLOUR('',#319);
#267=VERTEX_POINT('NONE',#320);
#268=LINE('',#321,#322);
#269=VERTEX_POINT('NONE',#323);
#270=LINE('',#324,#325);
#271=LINE('',#326,#327);
#272=FILL_AREA_STYLE_COLOUR('',#328);
#273=VERTEX_POINT('NONE',#329);
#274=LINE('',#330,#331);
#275=VERTEX_POINT('NONE',#332);
#276=LINE('',#333,#334);
#277=LINE('',#335,#336);
#278=FILL_AREA_STYLE_COLOUR('',#337);
#279=LINE('',#338,#339);
#280=FILL_AREA_STYLE_COLOUR('',#340);
#281=VERTEX_POINT('NONE',#341);
#282=LINE('',#342,#343);
#283=CIRCLE('',#344,15.0);
#284=FILL_AREA_STYLE_COLOUR('',#345);
#285=LINE('',#346,#347);
#286=FILL_AREA_STYLE_COLOUR('',#348);
#287=FILL_AREA_STYLE_COLOUR('',#349);
#288=COLOUR_RGB('',0.509803950786591,0.509803950786591,0.588235318660736);
#289=CARTESIAN_POINT('',(-15.0,13.0,35.0));
#290=CARTESIAN_POINT('',(0.0,13.0,50.0));
#291=AXIS2_PLACEMENT_3D('',#350,#351,#352);
#292=CARTESIAN_POINT('',(0.0,18.0,50.0));
#293=CARTESIAN_POINT('',(0.0,11.2042682926829,50.0));
#294=VECTOR('',#353,1000.0);
#295=CARTESIAN_POINT('',(-15.0,18.0,35.0));
#296=AXIS2_PLACEMENT_3D('',#354,#355,#356);
#297=CARTESIAN_POINT('',(-15.0,11.2042682926829,35.0));
#298=VECTOR('',#357,1000.0);
#299=COLOUR_RGB('',0.509803950786591,0.509803950786591,0.588235318660736);
#300=CARTESIAN_POINT('',(-15.0,13.0,5.0));
#301=CARTESIAN_POINT('',(-15.0,13.0,17.5914634146341));
#302=VECTOR('',#358,1000.0);
#303=CARTESIAN_POINT('',(15.0,13.0,5.0));
#304=CARTESIAN_POINT('',(-15.0,13.0,5.0));
#305=VECTOR('',#359,1000.0);
#306=CARTESIAN_POINT('',(15.0,13.0,35.0));
#307=CARTESIAN_POINT('',(15.0,13.0,17.5914634146341));
#308=VECTOR('',#360,1000.0);
#309=AXIS2_PLACEMENT_3D('',#361,#362,#363);
#310=COLOUR_RGB('',0.509803950786591,0.509803950786591,0.588235318660736);
#311=CARTESIAN_POINT('',(15.0,-14.0,5.0));
#312=CARTESIAN_POINT('',(15.0,9.40853658536585,5.0));
#313=VECTOR('',#364,1000.0);
#314=CARTESIAN_POINT('',(-15.0,-14.0,5.0));
#315=CARTESIAN_POINT('',(-15.0,9.40853658536585,5.0));
#316=VECTOR('',#365,1000.0);
#317=CARTESIAN_POINT('',(-15.0,-14.0,5.0));
#318=VECTOR('',#366,1000.0);
#319=COLOUR_RGB('',0.509803950786591,0.509803950786591,0.588235318660736);
#320=CARTESIAN_POINT('',(15.0,-14.0,4.53341068388606E-015));
#321=CARTESIAN_POINT('',(15.0,-14.0,17.5914634146341));
#322=VECTOR('',#367,1000.0);
#323=CARTESIAN_POINT('',(-15.0,-14.0,0.0));
#324=CARTESIAN_POINT('',(-15.0,-14.0,17.5914634146341));
#325=VECTOR('',#368,1000.0);
#326=CARTESIAN_POINT('',(-15.0,-14.0,0.0));
#327=VECTOR('',#369,1000.0);
#328=COLOUR_RGB('',0.509803950786591,0.509803950786591,0.588235318660736);
#329=CARTESIAN_POINT('',(15.0,18.0,1.15648231731787E-015));
#330=CARTESIAN_POINT('',(15.0,9.40853658536585,3.46944695195361E-015));
#331=VECTOR('',#370,1000.0);
#332=CARTESIAN_POINT('',(-15.0,18.0,5.92473852190813E-230));
#333=CARTESIAN_POINT('',(-15.0,9.40853658536585,0.0));
#334=VECTOR('',#371,1000.0);
#335=CARTESIAN_POINT('',(-15.0,18.0,0.0));
#336=VECTOR('',#372,1000.0);
#337=COLOUR_RGB('',0.509803950786591,0.509803950786591,0.588235318660736);
#338=CARTESIAN_POINT('',(-15.0,18.0,50.0));
#339=VECTOR('',#373,1000.0);
#340=COLOUR_RGB('',0.509803950786591,0.509803950786591,0.588235318660736);
#341=CARTESIAN_POINT('',(15.0,18.0,35.0));
#342=CARTESIAN_POINT('',(15.0,9.40853658536585,35.0));
#343=VECTOR('',#374,1000.0);
#344=AXIS2_PLACEMENT_3D('',#375,#376,#377);
#345=COLOUR_RGB('',0.509803950786591,0.509803950786591,0.588235318660736);
#346=CARTESIAN_POINT('',(15.0,18.0,50.0));
#347=VECTOR('',#378,1000.0);
#348=COLOUR_RGB('',0.509803950786591,0.509803950786591,0.588235318660736);
#349=COLOUR_RGB('',0.509803950786591,0.509803950786591,0.588235318660736);
#350=CARTESIAN_POINT('',(0.0,13.0,35.0));
#351=DIRECTION('',(0.0,1.0,0.0));
#352=DIRECTION('',(0.0,0.0,1.0));
#353=DIRECTION('',(0.0,1.0,0.0));
#354=CARTESIAN_POINT('',(0.0,18.0,35.0));
#355=DIRECTION('',(0.0,1.0,0.0));
#356=DIRECTION('',(0.0,0.0,1.0));
#357=DIRECTION('',(0.0,-1.0,0.0));
#358=DIRECTION('',(1.09476442525376E-047,5.39760534693403E-079,-1.0));
#359=DIRECTION('',(-1.0,-5.39760534693403E-079,-1.09476442525376E-047));
#360=DIRECTION('',(1.09476442525376E-047,5.39760534693403E-079,-1.0));
#361=CARTESIAN_POINT('',(0.0,13.0,35.0));
#362=DIRECTION('',(0.0,1.0,0.0));
#363=DIRECTION('',(0.0,0.0,1.0));
#364=DIRECTION('',(4.93038065763132E-032,-1.0,0.0));
#365=DIRECTION('',(4.93038065763132E-032,-1.0,0.0));
#366=DIRECTION('',(-1.0,0.0,0.0));
#367=DIRECTION('',(1.09476442525376E-047,5.39760534693403E-079,-1.0));
#368=DIRECTION('',(1.09476442525376E-047,5.39760534693403E-079,-1.0));
#369=DIRECTION('',(-1.0,0.0,-2.22044604925031E-016));
#370=DIRECTION('',(-4.93038065763132E-032,1.0,0.0));
#371=DIRECTION('',(-4.93038065763132E-032,1.0,0.0));
#372=DIRECTION('',(-1.0,-1.16438576282981E-082,-8.43189553201992E-116));
#373=DIRECTION('',(0.0,-7.24149659089601E-034,1.0));
#374=DIRECTION('',(4.93038065763132E-032,-1.0,0.0));
#375=CARTESIAN_POINT('',(0.0,18.0,35.0));
#376=DIRECTION('',(0.0,1.0,0.0));
#377=DIRECTION('',(0.0,0.0,1.0));
#378=DIRECTION('',(0.0,7.24149659089601E-034,-1.0));
#379=PRESENTATION_LAYER_ASSIGNMENT('-1','NONE',(#34,#36,#38,#40,#42,#44,#46,#48,#50,#52));
ENDSEC;
END-ISO-10303-21;
