ISO-10303-21;
HEADER;
FILE_DESCRIPTION(('STEP AP214'),'1');
FILE_NAME('cctmp_8B38AA13-D4E6-4EF3-A5DA-715354A8B29D_2020_1_14_9_5_49_716..stp','2020-01-14T08:05:49',('Bosch Rexroth AG'),('CADClick - www.CADClick.com'),'Spatial InterOp 3D',' ','unknown authorization - (Healing Option Enabled)');
FILE_SCHEMA(('AUTOMOTIVE_DESIGN'));
ENDSEC;
DATA;
#1=MECHANICAL_DESIGN_GEOMETRIC_PRESENTATION_REPRESENTATION(' ',(#10,#11,#12,#13,#14,#15,#16,#17,#18,#19,#20,#21,#22,#23,#24,#25,#26,#27,#28),#6);
#2=PRODUCT_DEFINITION_CONTEXT('',#29,'design');
#3=APPLICATION_PROTOCOL_DEFINITION('INTERNATIONAL STANDARD','automotive_design',1994,#29);
#4=PRODUCT_CATEGORY_RELATIONSHIP('NONE','NONE',#30,#31);
#5=SHAPE_DEFINITION_REPRESENTATION(#32,#33);
#6= (GEOMETRIC_REPRESENTATION_CONTEXT(3)GLOBAL_UNCERTAINTY_ASSIGNED_CONTEXT((#36))GLOBAL_UNIT_ASSIGNED_CONTEXT((#38,#39,#40))REPRESENTATION_CONTEXT('NONE','WORKSPACE'));
#10=STYLED_ITEM('',(#42),#43);
#11=STYLED_ITEM('',(#44),#45);
#12=STYLED_ITEM('',(#46),#47);
#13=STYLED_ITEM('',(#48),#49);
#14=STYLED_ITEM('',(#50),#51);
#15=STYLED_ITEM('',(#52),#53);
#16=STYLED_ITEM('',(#54),#55);
#17=STYLED_ITEM('',(#56),#57);
#18=STYLED_ITEM('',(#58),#59);
#19=STYLED_ITEM('',(#60),#61);
#20=STYLED_ITEM('',(#62),#63);
#21=STYLED_ITEM('',(#64),#65);
#22=STYLED_ITEM('',(#66),#67);
#23=STYLED_ITEM('',(#68),#69);
#24=STYLED_ITEM('',(#70),#71);
#25=STYLED_ITEM('',(#72),#73);
#26=STYLED_ITEM('',(#74),#75);
#27=STYLED_ITEM('',(#76),#77);
#28=STYLED_ITEM('',(#78),#79);
#29=APPLICATION_CONTEXT(' ');
#30=PRODUCT_CATEGORY('part','NONE');
#31=PRODUCT_RELATED_PRODUCT_CATEGORY('detail',' ',(#80));
#32=PRODUCT_DEFINITION_SHAPE('NONE','NONE',#81);
#33=ADVANCED_BREP_SHAPE_REPRESENTATION('2020_01_14__09-05-49-716',(#79,#82),#6);
#36=UNCERTAINTY_MEASURE_WITH_UNIT(LENGTH_MEASURE(1.0E-006),#38,'','');
#38= (CONVERSION_BASED_UNIT('MILLIMETRE',#85)LENGTH_UNIT()NAMED_UNIT(#88));
#39= (NAMED_UNIT(#90)PLANE_ANGLE_UNIT()SI_UNIT($,.RADIAN.));
#40= (NAMED_UNIT(#90)SOLID_ANGLE_UNIT()SI_UNIT($,.STERADIAN.));
#42=PRESENTATION_STYLE_ASSIGNMENT((#96));
#43=ADVANCED_FACE('',(#97),#98,.F.);
#44=PRESENTATION_STYLE_ASSIGNMENT((#99));
#45=ADVANCED_FACE('',(#100),#101,.F.);
#46=PRESENTATION_STYLE_ASSIGNMENT((#102));
#47=ADVANCED_FACE('',(#103),#104,.F.);
#48=PRESENTATION_STYLE_ASSIGNMENT((#105));
#49=ADVANCED_FACE('',(#106),#107,.F.);
#50=PRESENTATION_STYLE_ASSIGNMENT((#108));
#51=ADVANCED_FACE('',(#109),#110,.F.);
#52=PRESENTATION_STYLE_ASSIGNMENT((#111));
#53=ADVANCED_FACE('',(#112),#113,.F.);
#54=PRESENTATION_STYLE_ASSIGNMENT((#114));
#55=ADVANCED_FACE('',(#115,#116),#117,.F.);
#56=PRESENTATION_STYLE_ASSIGNMENT((#118));
#57=ADVANCED_FACE('',(#119),#120,.F.);
#58=PRESENTATION_STYLE_ASSIGNMENT((#121));
#59=ADVANCED_FACE('',(#122,#123),#124,.F.);
#60=PRESENTATION_STYLE_ASSIGNMENT((#125));
#61=ADVANCED_FACE('',(#126),#127,.F.);
#62=PRESENTATION_STYLE_ASSIGNMENT((#128));
#63=ADVANCED_FACE('',(#129),#130,.F.);
#64=PRESENTATION_STYLE_ASSIGNMENT((#131));
#65=ADVANCED_FACE('',(#132),#133,.F.);
#66=PRESENTATION_STYLE_ASSIGNMENT((#134));
#67=ADVANCED_FACE('',(#135),#136,.T.);
#68=PRESENTATION_STYLE_ASSIGNMENT((#137));
#69=ADVANCED_FACE('',(#138),#139,.T.);
#70=PRESENTATION_STYLE_ASSIGNMENT((#140));
#71=ADVANCED_FACE('',(#141),#142,.T.);
#72=PRESENTATION_STYLE_ASSIGNMENT((#143));
#73=ADVANCED_FACE('',(#144),#145,.T.);
#74=PRESENTATION_STYLE_ASSIGNMENT((#146));
#75=ADVANCED_FACE('',(#147,#148,#149,#150),#151,.F.);
#76=PRESENTATION_STYLE_ASSIGNMENT((#152));
#77=ADVANCED_FACE('',(#153,#154,#155,#156),#157,.T.);
#78=PRESENTATION_STYLE_ASSIGNMENT((#158));
#79=MANIFOLD_SOLID_BREP('2020_01_14__09-05-49-716',#159);
#80=PRODUCT('2020_01_14__09-05-49-716','','PART--DESC',(#160));
#81=PRODUCT_DEFINITION('','NONE',#161,#2);
#82=AXIS2_PLACEMENT_3D('',#162,#163,#164);
#85=LENGTH_MEASURE_WITH_UNIT(LENGTH_MEASURE(1.0),#165);
#88=DIMENSIONAL_EXPONENTS(1.0,0.0,0.0,0.0,0.0,0.0,0.0);
#90=DIMENSIONAL_EXPONENTS(0.0,0.0,0.0,0.0,0.0,0.0,0.0);
#96=SURFACE_STYLE_USAGE(.BOTH.,#166);
#97=FACE_OUTER_BOUND('',#167,.T.);
#98=CYLINDRICAL_SURFACE('',#168,5.053);
#99=SURFACE_STYLE_USAGE(.BOTH.,#169);
#100=FACE_OUTER_BOUND('',#170,.T.);
#101=CYLINDRICAL_SURFACE('',#171,6.5);
#102=SURFACE_STYLE_USAGE(.BOTH.,#172);
#103=FACE_OUTER_BOUND('',#173,.T.);
#104=CYLINDRICAL_SURFACE('',#174,6.5);
#105=SURFACE_STYLE_USAGE(.BOTH.,#175);
#106=FACE_OUTER_BOUND('',#176,.T.);
#107=CYLINDRICAL_SURFACE('',#177,9.5);
#108=SURFACE_STYLE_USAGE(.BOTH.,#178);
#109=FACE_OUTER_BOUND('',#179,.T.);
#110=CYLINDRICAL_SURFACE('',#180,9.5);
#111=SURFACE_STYLE_USAGE(.BOTH.,#181);
#112=FACE_OUTER_BOUND('',#182,.T.);
#113=CYLINDRICAL_SURFACE('',#183,9.5);
#114=SURFACE_STYLE_USAGE(.BOTH.,#184);
#115=FACE_BOUND('',#185,.T.);
#116=FACE_OUTER_BOUND('',#186,.T.);
#117=PLANE('',#187);
#118=SURFACE_STYLE_USAGE(.BOTH.,#188);
#119=FACE_OUTER_BOUND('',#189,.T.);
#120=CYLINDRICAL_SURFACE('',#190,9.5);
#121=SURFACE_STYLE_USAGE(.BOTH.,#191);
#122=FACE_BOUND('',#192,.T.);
#123=FACE_OUTER_BOUND('',#193,.T.);
#124=PLANE('',#194);
#125=SURFACE_STYLE_USAGE(.BOTH.,#195);
#126=FACE_OUTER_BOUND('',#196,.T.);
#127=CYLINDRICAL_SURFACE('',#197,6.5);
#128=SURFACE_STYLE_USAGE(.BOTH.,#198);
#129=FACE_OUTER_BOUND('',#199,.T.);
#130=CYLINDRICAL_SURFACE('',#200,6.5);
#131=SURFACE_STYLE_USAGE(.BOTH.,#201);
#132=FACE_OUTER_BOUND('',#202,.T.);
#133=CYLINDRICAL_SURFACE('',#203,5.053);
#134=SURFACE_STYLE_USAGE(.BOTH.,#204);
#135=FACE_OUTER_BOUND('',#205,.T.);
#136=PLANE('',#206);
#137=SURFACE_STYLE_USAGE(.BOTH.,#207);
#138=FACE_OUTER_BOUND('',#208,.T.);
#139=PLANE('',#209);
#140=SURFACE_STYLE_USAGE(.BOTH.,#210);
#141=FACE_OUTER_BOUND('',#211,.T.);
#142=PLANE('',#212);
#143=SURFACE_STYLE_USAGE(.BOTH.,#213);
#144=FACE_OUTER_BOUND('',#214,.T.);
#145=PLANE('',#215);
#146=SURFACE_STYLE_USAGE(.BOTH.,#216);
#147=FACE_BOUND('',#217,.T.);
#148=FACE_BOUND('',#218,.T.);
#149=FACE_BOUND('',#219,.T.);
#150=FACE_OUTER_BOUND('',#220,.T.);
#151=PLANE('',#221);
#152=SURFACE_STYLE_USAGE(.BOTH.,#222);
#153=FACE_BOUND('',#223,.T.);
#154=FACE_BOUND('',#224,.T.);
#155=FACE_BOUND('',#225,.T.);
#156=FACE_OUTER_BOUND('',#226,.T.);
#157=PLANE('',#227);
#158=SURFACE_STYLE_USAGE(.BOTH.,#228);
#159=CLOSED_SHELL('',(#43,#45,#47,#49,#51,#53,#55,#57,#59,#61,#63,#65,#67,#69,#71,#73,#75,#77));
#160=PRODUCT_CONTEXT('',#29,'mechanical');
#161=PRODUCT_DEFINITION_FORMATION_WITH_SPECIFIED_SOURCE(' ','NONE',#80,.NOT_KNOWN.);
#162=CARTESIAN_POINT('',(0.0,0.0,0.0));
#163=DIRECTION('',(0.0,0.0,1.0));
#164=DIRECTION('',(1.0,0.0,0.0));
#165= (NAMED_UNIT(#88)LENGTH_UNIT()SI_UNIT(.MILLI.,.METRE.));
#166=SURFACE_SIDE_STYLE('',(#230));
#167=EDGE_LOOP('',(#231,#232,#233,#234));
#168=AXIS2_PLACEMENT_3D('',#235,#236,#237);
#169=SURFACE_SIDE_STYLE('',(#238));
#170=EDGE_LOOP('',(#239,#240,#241,#242));
#171=AXIS2_PLACEMENT_3D('',#243,#244,#245);
#172=SURFACE_SIDE_STYLE('',(#246));
#173=EDGE_LOOP('',(#247,#248,#249,#250));
#174=AXIS2_PLACEMENT_3D('',#251,#252,#253);
#175=SURFACE_SIDE_STYLE('',(#254));
#176=EDGE_LOOP('',(#255,#256,#257,#258));
#177=AXIS2_PLACEMENT_3D('',#259,#260,#261);
#178=SURFACE_SIDE_STYLE('',(#262));
#179=EDGE_LOOP('',(#263,#264,#265,#266));
#180=AXIS2_PLACEMENT_3D('',#267,#268,#269);
#181=SURFACE_SIDE_STYLE('',(#270));
#182=EDGE_LOOP('',(#271,#272,#273,#274));
#183=AXIS2_PLACEMENT_3D('',#275,#276,#277);
#184=SURFACE_SIDE_STYLE('',(#278));
#185=EDGE_LOOP('',(#279,#280));
#186=EDGE_LOOP('',(#281,#282));
#187=AXIS2_PLACEMENT_3D('',#283,#284,#285);
#188=SURFACE_SIDE_STYLE('',(#286));
#189=EDGE_LOOP('',(#287,#288,#289,#290));
#190=AXIS2_PLACEMENT_3D('',#291,#292,#293);
#191=SURFACE_SIDE_STYLE('',(#294));
#192=EDGE_LOOP('',(#295,#296));
#193=EDGE_LOOP('',(#297,#298));
#194=AXIS2_PLACEMENT_3D('',#299,#300,#301);
#195=SURFACE_SIDE_STYLE('',(#302));
#196=EDGE_LOOP('',(#303,#304,#305,#306));
#197=AXIS2_PLACEMENT_3D('',#307,#308,#309);
#198=SURFACE_SIDE_STYLE('',(#310));
#199=EDGE_LOOP('',(#311,#312,#313,#314));
#200=AXIS2_PLACEMENT_3D('',#315,#316,#317);
#201=SURFACE_SIDE_STYLE('',(#318));
#202=EDGE_LOOP('',(#319,#320,#321,#322));
#203=AXIS2_PLACEMENT_3D('',#323,#324,#325);
#204=SURFACE_SIDE_STYLE('',(#326));
#205=EDGE_LOOP('',(#327,#328,#329,#330));
#206=AXIS2_PLACEMENT_3D('',#331,#332,#333);
#207=SURFACE_SIDE_STYLE('',(#334));
#208=EDGE_LOOP('',(#335,#336,#337,#338));
#209=AXIS2_PLACEMENT_3D('',#339,#340,#341);
#210=SURFACE_SIDE_STYLE('',(#342));
#211=EDGE_LOOP('',(#343,#344,#345,#346));
#212=AXIS2_PLACEMENT_3D('',#347,#348,#349);
#213=SURFACE_SIDE_STYLE('',(#350));
#214=EDGE_LOOP('',(#351,#352,#353,#354));
#215=AXIS2_PLACEMENT_3D('',#355,#356,#357);
#216=SURFACE_SIDE_STYLE('',(#358));
#217=EDGE_LOOP('',(#359,#360));
#218=EDGE_LOOP('',(#361,#362));
#219=EDGE_LOOP('',(#363,#364));
#220=EDGE_LOOP('',(#365,#366,#367,#368));
#221=AXIS2_PLACEMENT_3D('',#369,#370,#371);
#222=SURFACE_SIDE_STYLE('',(#372));
#223=EDGE_LOOP('',(#373,#374));
#224=EDGE_LOOP('',(#375,#376));
#225=EDGE_LOOP('',(#377,#378));
#226=EDGE_LOOP('',(#379,#380,#381,#382));
#227=AXIS2_PLACEMENT_3D('',#383,#384,#385);
#228=SURFACE_SIDE_STYLE('',(#386));
#230=SURFACE_STYLE_FILL_AREA(#387);
#231=ORIENTED_EDGE('',*,*,#388,.F.);
#232=ORIENTED_EDGE('',*,*,#389,.F.);
#233=ORIENTED_EDGE('',*,*,#390,.F.);
#234=ORIENTED_EDGE('',*,*,#391,.F.);
#235=CARTESIAN_POINT('',(0.0,-7.5,0.0));
#236=DIRECTION('',(0.0,-1.0,0.0));
#237=DIRECTION('',(1.0,0.0,0.0));
#238=SURFACE_STYLE_FILL_AREA(#392);
#239=ORIENTED_EDGE('',*,*,#393,.F.);
#240=ORIENTED_EDGE('',*,*,#394,.T.);
#241=ORIENTED_EDGE('',*,*,#395,.F.);
#242=ORIENTED_EDGE('',*,*,#396,.F.);
#243=CARTESIAN_POINT('',(20.0,-7.5,0.0));
#244=DIRECTION('',(0.0,-1.0,0.0));
#245=DIRECTION('',(1.0,0.0,0.0));
#246=SURFACE_STYLE_FILL_AREA(#397);
#247=ORIENTED_EDGE('',*,*,#398,.F.);
#248=ORIENTED_EDGE('',*,*,#399,.T.);
#249=ORIENTED_EDGE('',*,*,#400,.F.);
#250=ORIENTED_EDGE('',*,*,#401,.F.);
#251=CARTESIAN_POINT('',(-20.0,-7.5,0.0));
#252=DIRECTION('',(0.0,-1.0,0.0));
#253=DIRECTION('',(1.0,0.0,0.0));
#254=SURFACE_STYLE_FILL_AREA(#402);
#255=ORIENTED_EDGE('',*,*,#403,.F.);
#256=ORIENTED_EDGE('',*,*,#404,.F.);
#257=ORIENTED_EDGE('',*,*,#405,.F.);
#258=ORIENTED_EDGE('',*,*,#406,.T.);
#259=CARTESIAN_POINT('',(20.0,-11.25,0.0));
#260=DIRECTION('',(0.0,-1.0,0.0));
#261=DIRECTION('',(1.0,0.0,0.0));
#262=SURFACE_STYLE_FILL_AREA(#407);
#263=ORIENTED_EDGE('',*,*,#408,.F.);
#264=ORIENTED_EDGE('',*,*,#409,.F.);
#265=ORIENTED_EDGE('',*,*,#410,.F.);
#266=ORIENTED_EDGE('',*,*,#411,.T.);
#267=CARTESIAN_POINT('',(-20.0,-11.25,0.0));
#268=DIRECTION('',(0.0,-1.0,0.0));
#269=DIRECTION('',(1.0,0.0,0.0));
#270=SURFACE_STYLE_FILL_AREA(#412);
#271=ORIENTED_EDGE('',*,*,#408,.T.);
#272=ORIENTED_EDGE('',*,*,#413,.T.);
#273=ORIENTED_EDGE('',*,*,#410,.T.);
#274=ORIENTED_EDGE('',*,*,#414,.F.);
#275=CARTESIAN_POINT('',(-20.0,-11.25,0.0));
#276=DIRECTION('',(0.0,-1.0,0.0));
#277=DIRECTION('',(1.0,0.0,0.0));
#278=SURFACE_STYLE_FILL_AREA(#415);
#279=ORIENTED_EDGE('',*,*,#416,.F.);
#280=ORIENTED_EDGE('',*,*,#399,.F.);
#281=ORIENTED_EDGE('',*,*,#413,.F.);
#282=ORIENTED_EDGE('',*,*,#411,.F.);
#283=CARTESIAN_POINT('',(-20.0,-7.5,0.0));
#284=DIRECTION('',(0.0,1.0,0.0));
#285=DIRECTION('',(-1.0,0.0,0.0));
#286=SURFACE_STYLE_FILL_AREA(#417);
#287=ORIENTED_EDGE('',*,*,#403,.T.);
#288=ORIENTED_EDGE('',*,*,#418,.T.);
#289=ORIENTED_EDGE('',*,*,#405,.T.);
#290=ORIENTED_EDGE('',*,*,#419,.F.);
#291=CARTESIAN_POINT('',(20.0,-11.25,0.0));
#292=DIRECTION('',(0.0,-1.0,0.0));
#293=DIRECTION('',(1.0,0.0,0.0));
#294=SURFACE_STYLE_FILL_AREA(#420);
#295=ORIENTED_EDGE('',*,*,#421,.F.);
#296=ORIENTED_EDGE('',*,*,#394,.F.);
#297=ORIENTED_EDGE('',*,*,#418,.F.);
#298=ORIENTED_EDGE('',*,*,#406,.F.);
#299=CARTESIAN_POINT('',(20.0,-7.5,0.0));
#300=DIRECTION('',(0.0,1.0,0.0));
#301=DIRECTION('',(-1.0,0.0,0.0));
#302=SURFACE_STYLE_FILL_AREA(#422);
#303=ORIENTED_EDGE('',*,*,#398,.T.);
#304=ORIENTED_EDGE('',*,*,#423,.F.);
#305=ORIENTED_EDGE('',*,*,#400,.T.);
#306=ORIENTED_EDGE('',*,*,#416,.T.);
#307=CARTESIAN_POINT('',(-20.0,-7.5,0.0));
#308=DIRECTION('',(0.0,-1.0,0.0));
#309=DIRECTION('',(1.0,0.0,0.0));
#310=SURFACE_STYLE_FILL_AREA(#424);
#311=ORIENTED_EDGE('',*,*,#393,.T.);
#312=ORIENTED_EDGE('',*,*,#425,.F.);
#313=ORIENTED_EDGE('',*,*,#395,.T.);
#314=ORIENTED_EDGE('',*,*,#421,.T.);
#315=CARTESIAN_POINT('',(20.0,-7.5,0.0));
#316=DIRECTION('',(0.0,-1.0,0.0));
#317=DIRECTION('',(1.0,0.0,0.0));
#318=SURFACE_STYLE_FILL_AREA(#426);
#319=ORIENTED_EDGE('',*,*,#388,.T.);
#320=ORIENTED_EDGE('',*,*,#427,.F.);
#321=ORIENTED_EDGE('',*,*,#390,.T.);
#322=ORIENTED_EDGE('',*,*,#428,.F.);
#323=CARTESIAN_POINT('',(0.0,-7.5,0.0));
#324=DIRECTION('',(0.0,-1.0,0.0));
#325=DIRECTION('',(1.0,0.0,0.0));
#326=SURFACE_STYLE_FILL_AREA(#429);
#327=ORIENTED_EDGE('',*,*,#430,.T.);
#328=ORIENTED_EDGE('',*,*,#431,.F.);
#329=ORIENTED_EDGE('',*,*,#432,.T.);
#330=ORIENTED_EDGE('',*,*,#433,.T.);
#331=CARTESIAN_POINT('',(40.0,0.0,-10.0));
#332=DIRECTION('',(1.0,0.0,-0.0));
#333=DIRECTION('',(0.0,0.0,1.0));
#334=SURFACE_STYLE_FILL_AREA(#434);
#335=ORIENTED_EDGE('',*,*,#435,.T.);
#336=ORIENTED_EDGE('',*,*,#436,.F.);
#337=ORIENTED_EDGE('',*,*,#437,.T.);
#338=ORIENTED_EDGE('',*,*,#431,.T.);
#339=CARTESIAN_POINT('',(0.0,0.0,-20.0));
#340=DIRECTION('',(0.0,0.0,-1.0));
#341=DIRECTION('',(1.0,0.0,0.0));
#342=SURFACE_STYLE_FILL_AREA(#438);
#343=ORIENTED_EDGE('',*,*,#439,.T.);
#344=ORIENTED_EDGE('',*,*,#440,.F.);
#345=ORIENTED_EDGE('',*,*,#441,.T.);
#346=ORIENTED_EDGE('',*,*,#436,.T.);
#347=CARTESIAN_POINT('',(-40.0,0.0,0.0));
#348=DIRECTION('',(-1.0,0.0,0.0));
#349=DIRECTION('',(0.0,0.0,-1.0));
#350=SURFACE_STYLE_FILL_AREA(#442);
#351=ORIENTED_EDGE('',*,*,#443,.T.);
#352=ORIENTED_EDGE('',*,*,#433,.F.);
#353=ORIENTED_EDGE('',*,*,#444,.T.);
#354=ORIENTED_EDGE('',*,*,#440,.T.);
#355=CARTESIAN_POINT('',(0.0,0.0,20.0));
#356=DIRECTION('',(0.0,0.0,1.0));
#357=DIRECTION('',(-1.0,0.0,0.0));
#358=SURFACE_STYLE_FILL_AREA(#445);
#359=ORIENTED_EDGE('',*,*,#401,.T.);
#360=ORIENTED_EDGE('',*,*,#423,.T.);
#361=ORIENTED_EDGE('',*,*,#396,.T.);
#362=ORIENTED_EDGE('',*,*,#425,.T.);
#363=ORIENTED_EDGE('',*,*,#391,.T.);
#364=ORIENTED_EDGE('',*,*,#427,.T.);
#365=ORIENTED_EDGE('',*,*,#432,.F.);
#366=ORIENTED_EDGE('',*,*,#437,.F.);
#367=ORIENTED_EDGE('',*,*,#441,.F.);
#368=ORIENTED_EDGE('',*,*,#444,.F.);
#369=CARTESIAN_POINT('',(0.0,0.0,0.0));
#370=DIRECTION('',(0.0,-1.0,0.0));
#371=DIRECTION('',(1.0,0.0,0.0));
#372=SURFACE_STYLE_FILL_AREA(#446);
#373=ORIENTED_EDGE('',*,*,#414,.T.);
#374=ORIENTED_EDGE('',*,*,#409,.T.);
#375=ORIENTED_EDGE('',*,*,#419,.T.);
#376=ORIENTED_EDGE('',*,*,#404,.T.);
#377=ORIENTED_EDGE('',*,*,#428,.T.);
#378=ORIENTED_EDGE('',*,*,#389,.T.);
#379=ORIENTED_EDGE('',*,*,#430,.F.);
#380=ORIENTED_EDGE('',*,*,#443,.F.);
#381=ORIENTED_EDGE('',*,*,#439,.F.);
#382=ORIENTED_EDGE('',*,*,#435,.F.);
#383=CARTESIAN_POINT('',(0.0,-15.0,-2.22044604925031E-016));
#384=DIRECTION('',(0.0,-1.0,0.0));
#385=DIRECTION('',(1.0,0.0,0.0));
#386=SURFACE_STYLE_FILL_AREA(#447);
#387=FILL_AREA_STYLE('',(#448));
#388=EDGE_CURVE('',#449,#450,#451,.T.);
#389=EDGE_CURVE('',#452,#449,#453,.T.);
#390=EDGE_CURVE('',#454,#452,#455,.T.);
#391=EDGE_CURVE('',#450,#454,#456,.T.);
#392=FILL_AREA_STYLE('',(#457));
#393=EDGE_CURVE('',#458,#459,#460,.T.);
#394=EDGE_CURVE('',#458,#461,#462,.T.);
#395=EDGE_CURVE('',#463,#461,#464,.T.);
#396=EDGE_CURVE('',#459,#463,#465,.T.);
#397=FILL_AREA_STYLE('',(#466));
#398=EDGE_CURVE('',#467,#468,#469,.T.);
#399=EDGE_CURVE('',#467,#470,#471,.T.);
#400=EDGE_CURVE('',#472,#470,#473,.T.);
#401=EDGE_CURVE('',#468,#472,#474,.T.);
#402=FILL_AREA_STYLE('',(#475));
#403=EDGE_CURVE('',#476,#477,#478,.T.);
#404=EDGE_CURVE('',#479,#476,#480,.T.);
#405=EDGE_CURVE('',#481,#479,#482,.T.);
#406=EDGE_CURVE('',#481,#477,#483,.T.);
#407=FILL_AREA_STYLE('',(#484));
#408=EDGE_CURVE('',#485,#486,#487,.T.);
#409=EDGE_CURVE('',#488,#485,#489,.T.);
#410=EDGE_CURVE('',#490,#488,#491,.T.);
#411=EDGE_CURVE('',#490,#486,#492,.T.);
#412=FILL_AREA_STYLE('',(#493));
#413=EDGE_CURVE('',#486,#490,#494,.T.);
#414=EDGE_CURVE('',#485,#488,#495,.T.);
#415=FILL_AREA_STYLE('',(#496));
#416=EDGE_CURVE('',#470,#467,#497,.T.);
#417=FILL_AREA_STYLE('',(#498));
#418=EDGE_CURVE('',#477,#481,#499,.T.);
#419=EDGE_CURVE('',#476,#479,#500,.T.);
#420=FILL_AREA_STYLE('',(#501));
#421=EDGE_CURVE('',#461,#458,#502,.T.);
#422=FILL_AREA_STYLE('',(#503));
#423=EDGE_CURVE('',#472,#468,#504,.T.);
#424=FILL_AREA_STYLE('',(#505));
#425=EDGE_CURVE('',#463,#459,#506,.T.);
#426=FILL_AREA_STYLE('',(#507));
#427=EDGE_CURVE('',#454,#450,#508,.T.);
#428=EDGE_CURVE('',#449,#452,#509,.T.);
#429=FILL_AREA_STYLE('',(#510));
#430=EDGE_CURVE('',#511,#512,#513,.T.);
#431=EDGE_CURVE('',#514,#512,#515,.T.);
#432=EDGE_CURVE('',#514,#516,#517,.T.);
#433=EDGE_CURVE('',#516,#511,#518,.T.);
#434=FILL_AREA_STYLE('',(#519));
#435=EDGE_CURVE('',#512,#520,#521,.T.);
#436=EDGE_CURVE('',#522,#520,#523,.T.);
#437=EDGE_CURVE('',#522,#514,#524,.T.);
#438=FILL_AREA_STYLE('',(#525));
#439=EDGE_CURVE('',#520,#526,#527,.T.);
#440=EDGE_CURVE('',#528,#526,#529,.T.);
#441=EDGE_CURVE('',#528,#522,#530,.T.);
#442=FILL_AREA_STYLE('',(#531));
#443=EDGE_CURVE('',#526,#511,#532,.T.);
#444=EDGE_CURVE('',#516,#528,#533,.T.);
#445=FILL_AREA_STYLE('',(#534));
#446=FILL_AREA_STYLE('',(#535));
#447=FILL_AREA_STYLE('',(#536));
#448=FILL_AREA_STYLE_COLOUR('',#537);
#449=VERTEX_POINT('',#538);
#450=VERTEX_POINT('',#539);
#451=LINE('',#540,#541);
#452=VERTEX_POINT('',#542);
#453=CIRCLE('',#543,5.053);
#454=VERTEX_POINT('',#544);
#455=LINE('',#545,#546);
#456=CIRCLE('',#547,5.053);
#457=FILL_AREA_STYLE_COLOUR('',#548);
#458=VERTEX_POINT('',#549);
#459=VERTEX_POINT('',#550);
#460=LINE('',#551,#552);
#461=VERTEX_POINT('',#553);
#462=CIRCLE('',#554,6.5);
#463=VERTEX_POINT('',#555);
#464=LINE('',#556,#557);
#465=CIRCLE('',#558,6.5);
#466=FILL_AREA_STYLE_COLOUR('',#559);
#467=VERTEX_POINT('',#560);
#468=VERTEX_POINT('',#561);
#469=LINE('',#562,#563);
#470=VERTEX_POINT('',#564);
#471=CIRCLE('',#565,6.5);
#472=VERTEX_POINT('',#566);
#473=LINE('',#567,#568);
#474=CIRCLE('',#569,6.5);
#475=FILL_AREA_STYLE_COLOUR('',#570);
#476=VERTEX_POINT('',#571);
#477=VERTEX_POINT('',#572);
#478=LINE('',#573,#574);
#479=VERTEX_POINT('',#575);
#480=CIRCLE('',#576,9.5);
#481=VERTEX_POINT('',#577);
#482=LINE('',#578,#579);
#483=CIRCLE('',#580,9.5);
#484=FILL_AREA_STYLE_COLOUR('',#581);
#485=VERTEX_POINT('',#582);
#486=VERTEX_POINT('',#583);
#487=LINE('',#584,#585);
#488=VERTEX_POINT('',#586);
#489=CIRCLE('',#587,9.5);
#490=VERTEX_POINT('',#588);
#491=LINE('',#589,#590);
#492=CIRCLE('',#591,9.5);
#493=FILL_AREA_STYLE_COLOUR('',#592);
#494=CIRCLE('',#593,9.5);
#495=CIRCLE('',#594,9.5);
#496=FILL_AREA_STYLE_COLOUR('',#595);
#497=CIRCLE('',#596,6.5);
#498=FILL_AREA_STYLE_COLOUR('',#597);
#499=CIRCLE('',#598,9.5);
#500=CIRCLE('',#599,9.5);
#501=FILL_AREA_STYLE_COLOUR('',#600);
#502=CIRCLE('',#601,6.5);
#503=FILL_AREA_STYLE_COLOUR('',#602);
#504=CIRCLE('',#603,6.5);
#505=FILL_AREA_STYLE_COLOUR('',#604);
#506=CIRCLE('',#605,6.5);
#507=FILL_AREA_STYLE_COLOUR('',#606);
#508=CIRCLE('',#607,5.053);
#509=CIRCLE('',#608,5.053);
#510=FILL_AREA_STYLE_COLOUR('',#609);
#511=VERTEX_POINT('',#610);
#512=VERTEX_POINT('',#611);
#513=LINE('',#612,#613);
#514=VERTEX_POINT('',#614);
#515=LINE('',#615,#616);
#516=VERTEX_POINT('',#617);
#517=LINE('',#618,#619);
#518=LINE('',#620,#621);
#519=FILL_AREA_STYLE_COLOUR('',#622);
#520=VERTEX_POINT('',#623);
#521=LINE('',#624,#625);
#522=VERTEX_POINT('',#626);
#523=LINE('',#627,#628);
#524=LINE('',#629,#630);
#525=FILL_AREA_STYLE_COLOUR('',#631);
#526=VERTEX_POINT('',#632);
#527=LINE('',#633,#634);
#528=VERTEX_POINT('',#635);
#529=LINE('',#636,#637);
#530=LINE('',#638,#639);
#531=FILL_AREA_STYLE_COLOUR('',#640);
#532=LINE('',#641,#642);
#533=LINE('',#643,#644);
#534=FILL_AREA_STYLE_COLOUR('',#645);
#535=FILL_AREA_STYLE_COLOUR('',#646);
#536=FILL_AREA_STYLE_COLOUR('',#647);
#537=COLOUR_RGB('',0.509803950786591,0.509803950786591,0.588235318660736);
#538=CARTESIAN_POINT('',(5.053,-15.0,0.0));
#539=CARTESIAN_POINT('',(5.053,0.0,0.0));
#540=CARTESIAN_POINT('',(5.053,-7.5,-6.18814027609157E-016));
#541=VECTOR('',#648,1.0);
#542=CARTESIAN_POINT('',(-5.053,-15.0,6.18814027609157E-016));
#543=AXIS2_PLACEMENT_3D('',#649,#650,#651);
#544=CARTESIAN_POINT('',(-5.053,0.0,6.18814027609157E-016));
#545=CARTESIAN_POINT('',(-5.053,-7.5,6.18814027609157E-016));
#546=VECTOR('',#652,1.0);
#547=AXIS2_PLACEMENT_3D('',#653,#654,#655);
#548=COLOUR_RGB('',0.509803950786591,0.509803950786591,0.588235318660736);
#549=CARTESIAN_POINT('',(26.5,-7.5,-7.96020419445779E-016));
#550=CARTESIAN_POINT('',(26.5,0.0,0.0));
#551=CARTESIAN_POINT('',(26.5,-7.5,-7.96020419445779E-016));
#552=VECTOR('',#656,1.0);
#553=CARTESIAN_POINT('',(13.5,-7.5,-7.96020419445779E-016));
#554=AXIS2_PLACEMENT_3D('',#657,#658,#659);
#555=CARTESIAN_POINT('',(13.5,0.0,7.96020419445779E-016));
#556=CARTESIAN_POINT('',(13.5,-7.5,7.96020419445779E-016));
#557=VECTOR('',#660,1.0);
#558=AXIS2_PLACEMENT_3D('',#661,#662,#663);
#559=COLOUR_RGB('',0.509803950786591,0.509803950786591,0.588235318660736);
#560=CARTESIAN_POINT('',(-13.5,-7.5,-7.96020419445779E-016));
#561=CARTESIAN_POINT('',(-13.5,0.0,0.0));
#562=CARTESIAN_POINT('',(-13.5,-7.5,-7.96020419445779E-016));
#563=VECTOR('',#664,1.0);
#564=CARTESIAN_POINT('',(-26.5,-7.5,-7.96020419445779E-016));
#565=AXIS2_PLACEMENT_3D('',#665,#666,#667);
#566=CARTESIAN_POINT('',(-26.5,0.0,7.96020419445779E-016));
#567=CARTESIAN_POINT('',(-26.5,-7.5,7.96020419445779E-016));
#568=VECTOR('',#668,1.0);
#569=AXIS2_PLACEMENT_3D('',#669,#670,#671);
#570=COLOUR_RGB('',0.509803950786591,0.509803950786591,0.588235318660736);
#571=CARTESIAN_POINT('',(29.5,-15.0,0.0));
#572=CARTESIAN_POINT('',(29.5,-7.5,0.0));
#573=CARTESIAN_POINT('',(29.5,-11.25,-1.16341445918999E-015));
#574=VECTOR('',#672,1.0);
#575=CARTESIAN_POINT('',(10.5,-15.0,1.16341445918999E-015));
#576=AXIS2_PLACEMENT_3D('',#673,#674,#675);
#577=CARTESIAN_POINT('',(10.5,-7.5,1.16341445918999E-015));
#578=CARTESIAN_POINT('',(10.5,-11.25,1.16341445918999E-015));
#579=VECTOR('',#676,1.0);
#580=AXIS2_PLACEMENT_3D('',#677,#678,#679);
#581=COLOUR_RGB('',0.509803950786591,0.509803950786591,0.588235318660736);
#582=CARTESIAN_POINT('',(-10.5,-15.0,0.0));
#583=CARTESIAN_POINT('',(-10.5,-7.5,0.0));
#584=CARTESIAN_POINT('',(-10.5,-11.25,-1.16341445918999E-015));
#585=VECTOR('',#680,1.0);
#586=CARTESIAN_POINT('',(-29.5,-15.0,1.16341445918999E-015));
#587=AXIS2_PLACEMENT_3D('',#681,#682,#683);
#588=CARTESIAN_POINT('',(-29.5,-7.5,1.16341445918999E-015));
#589=CARTESIAN_POINT('',(-29.5,-11.25,1.16341445918999E-015));
#590=VECTOR('',#684,1.0);
#591=AXIS2_PLACEMENT_3D('',#685,#686,#687);
#592=COLOUR_RGB('',0.509803950786591,0.509803950786591,0.588235318660736);
#593=AXIS2_PLACEMENT_3D('',#688,#689,#690);
#594=AXIS2_PLACEMENT_3D('',#691,#692,#693);
#595=COLOUR_RGB('',0.509803950786591,0.509803950786591,0.588235318660736);
#596=AXIS2_PLACEMENT_3D('',#694,#695,#696);
#597=COLOUR_RGB('',0.509803950786591,0.509803950786591,0.588235318660736);
#598=AXIS2_PLACEMENT_3D('',#697,#698,#699);
#599=AXIS2_PLACEMENT_3D('',#700,#701,#702);
#600=COLOUR_RGB('',0.509803950786591,0.509803950786591,0.588235318660736);
#601=AXIS2_PLACEMENT_3D('',#703,#704,#705);
#602=COLOUR_RGB('',0.509803950786591,0.509803950786591,0.588235318660736);
#603=AXIS2_PLACEMENT_3D('',#706,#707,#708);
#604=COLOUR_RGB('',0.509803950786591,0.509803950786591,0.588235318660736);
#605=AXIS2_PLACEMENT_3D('',#709,#710,#711);
#606=COLOUR_RGB('',0.509803950786591,0.509803950786591,0.588235318660736);
#607=AXIS2_PLACEMENT_3D('',#712,#713,#714);
#608=AXIS2_PLACEMENT_3D('',#715,#716,#717);
#609=COLOUR_RGB('',0.509803950786591,0.509803950786591,0.588235318660736);
#610=CARTESIAN_POINT('',(40.0,-15.0,20.0));
#611=CARTESIAN_POINT('',(40.0,-15.0,-20.0));
#612=CARTESIAN_POINT('',(40.0,-15.0,0.0));
#613=VECTOR('',#718,1.0);
#614=CARTESIAN_POINT('',(40.0,0.0,-20.0));
#615=CARTESIAN_POINT('',(40.0,0.0,-20.0));
#616=VECTOR('',#719,1.0);
#617=CARTESIAN_POINT('',(40.0,0.0,20.0));
#618=CARTESIAN_POINT('',(40.0,0.0,0.0));
#619=VECTOR('',#720,1.0);
#620=CARTESIAN_POINT('',(40.0,0.0,20.0));
#621=VECTOR('',#721,1.0);
#622=COLOUR_RGB('',0.509803950786591,0.509803950786591,0.588235318660736);
#623=CARTESIAN_POINT('',(-40.0,-15.0,-20.0));
#624=CARTESIAN_POINT('',(-40.0,-15.0,-20.0));
#625=VECTOR('',#722,1.0);
#626=CARTESIAN_POINT('',(-40.0,0.0,-20.0));
#627=CARTESIAN_POINT('',(-40.0,0.0,-20.0));
#628=VECTOR('',#723,1.0);
#629=CARTESIAN_POINT('',(-40.0,0.0,-20.0));
#630=VECTOR('',#724,1.0);
#631=COLOUR_RGB('',0.509803950786591,0.509803950786591,0.588235318660736);
#632=CARTESIAN_POINT('',(-40.0,-15.0,20.0));
#633=CARTESIAN_POINT('',(-40.0,-15.0,20.0));
#634=VECTOR('',#725,1.0);
#635=CARTESIAN_POINT('',(-40.0,0.0,20.0));
#636=CARTESIAN_POINT('',(-40.0,0.0,20.0));
#637=VECTOR('',#726,1.0);
#638=CARTESIAN_POINT('',(-40.0,0.0,20.0));
#639=VECTOR('',#727,1.0);
#640=COLOUR_RGB('',0.509803950786591,0.509803950786591,0.588235318660736);
#641=CARTESIAN_POINT('',(40.0,-15.0,20.0));
#642=VECTOR('',#728,1.0);
#643=CARTESIAN_POINT('',(40.0,0.0,20.0));
#644=VECTOR('',#729,1.0);
#645=COLOUR_RGB('',0.509803950786591,0.509803950786591,0.588235318660736);
#646=COLOUR_RGB('',0.509803950786591,0.509803950786591,0.588235318660736);
#647=COLOUR_RGB('',0.509803950786591,0.509803950786591,0.588235318660736);
#648=DIRECTION('',(-0.0,1.0,0.0));
#649=CARTESIAN_POINT('',(0.0,-15.0,0.0));
#650=DIRECTION('',(-0.0,1.0,0.0));
#651=DIRECTION('',(1.0,0.0,0.0));
#652=DIRECTION('',(-0.0,-1.0,0.0));
#653=CARTESIAN_POINT('',(0.0,0.0,0.0));
#654=DIRECTION('',(0.0,-1.0,0.0));
#655=DIRECTION('',(1.0,0.0,0.0));
#656=DIRECTION('',(-0.0,1.0,0.0));
#657=CARTESIAN_POINT('',(20.0,-7.5,0.0));
#658=DIRECTION('',(0.0,-1.0,0.0));
#659=DIRECTION('',(1.0,0.0,0.0));
#660=DIRECTION('',(-0.0,-1.0,0.0));
#661=CARTESIAN_POINT('',(20.0,0.0,0.0));
#662=DIRECTION('',(0.0,-1.0,0.0));
#663=DIRECTION('',(1.0,0.0,0.0));
#664=DIRECTION('',(-0.0,1.0,0.0));
#665=CARTESIAN_POINT('',(-20.0,-7.5,0.0));
#666=DIRECTION('',(0.0,-1.0,0.0));
#667=DIRECTION('',(1.0,0.0,0.0));
#668=DIRECTION('',(-0.0,-1.0,0.0));
#669=CARTESIAN_POINT('',(-20.0,0.0,0.0));
#670=DIRECTION('',(0.0,-1.0,0.0));
#671=DIRECTION('',(1.0,0.0,0.0));
#672=DIRECTION('',(-0.0,1.0,0.0));
#673=CARTESIAN_POINT('',(20.0,-15.0,0.0));
#674=DIRECTION('',(-0.0,1.0,0.0));
#675=DIRECTION('',(1.0,0.0,0.0));
#676=DIRECTION('',(-0.0,-1.0,0.0));
#677=CARTESIAN_POINT('',(20.0,-7.5,0.0));
#678=DIRECTION('',(-0.0,1.0,0.0));
#679=DIRECTION('',(1.0,0.0,0.0));
#680=DIRECTION('',(-0.0,1.0,0.0));
#681=CARTESIAN_POINT('',(-20.0,-15.0,0.0));
#682=DIRECTION('',(-0.0,1.0,0.0));
#683=DIRECTION('',(1.0,0.0,0.0));
#684=DIRECTION('',(-0.0,-1.0,0.0));
#685=CARTESIAN_POINT('',(-20.0,-7.5,0.0));
#686=DIRECTION('',(-0.0,1.0,0.0));
#687=DIRECTION('',(1.0,0.0,0.0));
#688=CARTESIAN_POINT('',(-20.0,-7.5,0.0));
#689=DIRECTION('',(-0.0,1.0,0.0));
#690=DIRECTION('',(1.0,0.0,0.0));
#691=CARTESIAN_POINT('',(-20.0,-15.0,0.0));
#692=DIRECTION('',(-0.0,1.0,0.0));
#693=DIRECTION('',(1.0,0.0,0.0));
#694=CARTESIAN_POINT('',(-20.0,-7.5,0.0));
#695=DIRECTION('',(0.0,-1.0,0.0));
#696=DIRECTION('',(1.0,0.0,0.0));
#697=CARTESIAN_POINT('',(20.0,-7.5,0.0));
#698=DIRECTION('',(-0.0,1.0,0.0));
#699=DIRECTION('',(1.0,0.0,0.0));
#700=CARTESIAN_POINT('',(20.0,-15.0,0.0));
#701=DIRECTION('',(-0.0,1.0,0.0));
#702=DIRECTION('',(1.0,0.0,0.0));
#703=CARTESIAN_POINT('',(20.0,-7.5,0.0));
#704=DIRECTION('',(0.0,-1.0,0.0));
#705=DIRECTION('',(1.0,0.0,0.0));
#706=CARTESIAN_POINT('',(-20.0,0.0,0.0));
#707=DIRECTION('',(0.0,-1.0,0.0));
#708=DIRECTION('',(1.0,0.0,0.0));
#709=CARTESIAN_POINT('',(20.0,0.0,0.0));
#710=DIRECTION('',(0.0,-1.0,0.0));
#711=DIRECTION('',(1.0,0.0,0.0));
#712=CARTESIAN_POINT('',(0.0,0.0,0.0));
#713=DIRECTION('',(0.0,-1.0,0.0));
#714=DIRECTION('',(1.0,0.0,0.0));
#715=CARTESIAN_POINT('',(0.0,-15.0,0.0));
#716=DIRECTION('',(-0.0,1.0,0.0));
#717=DIRECTION('',(1.0,0.0,0.0));
#718=DIRECTION('',(-0.0,0.0,-1.0));
#719=DIRECTION('',(0.0,-1.0,0.0));
#720=DIRECTION('',(0.0,0.0,1.0));
#721=DIRECTION('',(0.0,-1.0,0.0));
#722=DIRECTION('',(-1.0,0.0,-0.0));
#723=DIRECTION('',(0.0,-1.0,0.0));
#724=DIRECTION('',(1.0,0.0,0.0));
#725=DIRECTION('',(0.0,0.0,1.0));
#726=DIRECTION('',(0.0,-1.0,0.0));
#727=DIRECTION('',(0.0,0.0,-1.0));
#728=DIRECTION('',(1.0,0.0,0.0));
#729=DIRECTION('',(-1.0,0.0,0.0));
ENDSEC;
END-ISO-10303-21;
