ISO-10303-21;
HEADER;
FILE_DESCRIPTION(('STEP AP214'),'1');
FILE_NAME('cctmp_3CF583F1-C272-4D0C-9DB1-1460669F356C_2020_1_13_17_23_2_355..stp','2020-01-13T16:23:02',('Bosch Rexroth AG'),('CADClick - www.CADClick.com'),'Spatial InterOp 3D',' ','unknown authorization - (Healing Option Enabled)');
FILE_SCHEMA(('AUTOMOTIVE_DESIGN'));
ENDSEC;
DATA;
#1=MECHANICAL_DESIGN_GEOMETRIC_PRESENTATION_REPRESENTATION(' ',(#10,#11,#12,#13,#14),#6);
#2=PRODUCT_DEFINITION_CONTEXT('',#15,'design');
#3=APPLICATION_PROTOCOL_DEFINITION('INTERNATIONAL STANDARD','automotive_design',1994,#15);
#4=PRODUCT_CATEGORY_RELATIONSHIP('NONE','NONE',#16,#17);
#5=SHAPE_DEFINITION_REPRESENTATION(#18,#19);
#6= (GEOMETRIC_REPRESENTATION_CONTEXT(3)GLOBAL_UNCERTAINTY_ASSIGNED_CONTEXT((#22))GLOBAL_UNIT_ASSIGNED_CONTEXT((#24,#25,#26))REPRESENTATION_CONTEXT('NONE','WORKSPACE'));
#10=STYLED_ITEM('',(#28),#29);
#11=STYLED_ITEM('',(#30),#31);
#12=STYLED_ITEM('',(#32),#33);
#13=STYLED_ITEM('',(#34),#35);
#14=STYLED_ITEM('',(#36),#37);
#15=APPLICATION_CONTEXT(' ');
#16=PRODUCT_CATEGORY('part','NONE');
#17=PRODUCT_RELATED_PRODUCT_CATEGORY('detail',' ',(#38));
#18=PRODUCT_DEFINITION_SHAPE('NONE','NONE',#39);
#19=ADVANCED_BREP_SHAPE_REPRESENTATION('2020_01_13__17-23-02-355',(#37,#40),#6);
#22=UNCERTAINTY_MEASURE_WITH_UNIT(LENGTH_MEASURE(1.0E-006),#24,'','');
#24= (CONVERSION_BASED_UNIT('MILLIMETRE',#43)LENGTH_UNIT()NAMED_UNIT(#46));
#25= (NAMED_UNIT(#48)PLANE_ANGLE_UNIT()SI_UNIT($,.RADIAN.));
#26= (NAMED_UNIT(#48)SOLID_ANGLE_UNIT()SI_UNIT($,.STERADIAN.));
#28=PRESENTATION_STYLE_ASSIGNMENT((#54));
#29=ADVANCED_FACE('NONE',(#55),#56,.T.);
#30=PRESENTATION_STYLE_ASSIGNMENT((#57));
#31=ADVANCED_FACE('NONE',(#58),#59,.T.);
#32=PRESENTATION_STYLE_ASSIGNMENT((#60));
#33=ADVANCED_FACE('NONE',(#61),#62,.T.);
#34=PRESENTATION_STYLE_ASSIGNMENT((#63));
#35=ADVANCED_FACE('NONE',(#64),#65,.T.);
#36=PRESENTATION_STYLE_ASSIGNMENT((#66));
#37=MANIFOLD_SOLID_BREP('2020_01_13__17-23-02-355',#67);
#38=PRODUCT('2020_01_13__17-23-02-355','','PART--DESC',(#68));
#39=PRODUCT_DEFINITION('','NONE',#69,#2);
#40=AXIS2_PLACEMENT_3D('',#70,#71,#72);
#43=LENGTH_MEASURE_WITH_UNIT(LENGTH_MEASURE(1.0),#73);
#46=DIMENSIONAL_EXPONENTS(1.0,0.0,0.0,0.0,0.0,0.0,0.0);
#48=DIMENSIONAL_EXPONENTS(0.0,0.0,0.0,0.0,0.0,0.0,0.0);
#54=SURFACE_STYLE_USAGE(.BOTH.,#74);
#55=FACE_OUTER_BOUND('',#75,.T.);
#56=TOROIDAL_SURFACE('',#76,12.0,2.0);
#57=SURFACE_STYLE_USAGE(.BOTH.,#77);
#58=FACE_OUTER_BOUND('',#78,.T.);
#59=SPHERICAL_SURFACE('',#79,74.5000000000002);
#60=SURFACE_STYLE_USAGE(.BOTH.,#80);
#61=FACE_OUTER_BOUND('',#81,.T.);
#62=TOROIDAL_SURFACE('',#82,12.0,2.0);
#63=SURFACE_STYLE_USAGE(.BOTH.,#83);
#64=FACE_OUTER_BOUND('',#84,.T.);
#65=PLANE('',#85);
#66=SURFACE_STYLE_USAGE(.BOTH.,#86);
#67=CLOSED_SHELL('',(#29,#31,#33,#35));
#68=PRODUCT_CONTEXT('',#15,'mechanical');
#69=PRODUCT_DEFINITION_FORMATION_WITH_SPECIFIED_SOURCE(' ','NONE',#38,.NOT_KNOWN.);
#70=CARTESIAN_POINT('',(0.0,0.0,0.0));
#71=DIRECTION('',(0.0,0.0,1.0));
#72=DIRECTION('',(1.0,0.0,0.0));
#73= (NAMED_UNIT(#46)LENGTH_UNIT()SI_UNIT(.MILLI.,.METRE.));
#74=SURFACE_SIDE_STYLE('',(#88));
#75=EDGE_LOOP('',(#89,#90,#91,#92));
#76=AXIS2_PLACEMENT_3D('',#93,#94,#95);
#77=SURFACE_SIDE_STYLE('',(#96));
#78=EDGE_LOOP('',(#97,#98));
#79=AXIS2_PLACEMENT_3D('',#99,#100,#101);
#80=SURFACE_SIDE_STYLE('',(#102));
#81=EDGE_LOOP('',(#103,#104,#105,#106));
#82=AXIS2_PLACEMENT_3D('',#107,#108,#109);
#83=SURFACE_SIDE_STYLE('',(#110));
#84=EDGE_LOOP('',(#111,#112));
#85=AXIS2_PLACEMENT_3D('',#113,#114,#115);
#86=SURFACE_SIDE_STYLE('',(#116));
#88=SURFACE_STYLE_FILL_AREA(#117);
#89=ORIENTED_EDGE('',*,*,#118,.T.);
#90=ORIENTED_EDGE('',*,*,#119,.T.);
#91=ORIENTED_EDGE('',*,*,#120,.F.);
#92=ORIENTED_EDGE('',*,*,#121,.F.);
#93=CARTESIAN_POINT('',(-5.72614872185184E-014,0.0,2.63360959880339E-015));
#94=DIRECTION('',(1.0,-8.80425117434165E-031,3.63053228973065E-015));
#95=DIRECTION('',(3.63053228973065E-015,6.94532955118431E-061,-1.0));
#96=SURFACE_STYLE_FILL_AREA(#122);
#97=ORIENTED_EDGE('',*,*,#118,.F.);
#98=ORIENTED_EDGE('',*,*,#123,.F.);
#99=CARTESIAN_POINT('',(71.4999999999999,-7.39425881635114E-014,1.48589907739138E-013));
#100=DIRECTION('',(-0.167927932504957,-0.687407584258809,0.706591128297036));
#101=DIRECTION('',(-0.564120509875524,0.65481844107089,0.502972026628985));
#102=SURFACE_STYLE_FILL_AREA(#124);
#103=ORIENTED_EDGE('',*,*,#119,.F.);
#104=ORIENTED_EDGE('',*,*,#123,.T.);
#105=ORIENTED_EDGE('',*,*,#121,.T.);
#106=ORIENTED_EDGE('',*,*,#125,.F.);
#107=CARTESIAN_POINT('',(-5.72614872185184E-014,0.0,2.63360959880339E-015));
#108=DIRECTION('',(1.0,-8.80425117434165E-031,3.63053228973065E-015));
#109=DIRECTION('',(3.63053228973065E-015,6.94532955118431E-061,-1.0));
#110=SURFACE_STYLE_FILL_AREA(#126);
#111=ORIENTED_EDGE('',*,*,#120,.T.);
#112=ORIENTED_EDGE('',*,*,#125,.T.);
#113=CARTESIAN_POINT('',(0.0,0.0,-7.0));
#114=DIRECTION('',(1.0,6.11632085053506E-073,4.71227125091716E-044));
#115=DIRECTION('',(0.0,1.0,-1.2979560226599E-029));
#116=SURFACE_STYLE_FILL_AREA(#127);
#117=FILL_AREA_STYLE('',(#128));
#118=EDGE_CURVE('NONE',#129,#130,#131,.T.);
#119=EDGE_CURVE('NONE',#130,#132,#133,.T.);
#120=EDGE_CURVE('NONE',#134,#132,#135,.T.);
#121=EDGE_CURVE('NONE',#129,#134,#136,.T.);
#122=FILL_AREA_STYLE('',(#137));
#123=EDGE_CURVE('NONE',#130,#129,#138,.T.);
#124=FILL_AREA_STYLE('',(#139));
#125=EDGE_CURVE('NONE',#132,#134,#140,.T.);
#126=FILL_AREA_STYLE('',(#141));
#127=FILL_AREA_STYLE('',(#142));
#128=FILL_AREA_STYLE_COLOUR('',#143);
#129=VERTEX_POINT('NONE',#144);
#130=VERTEX_POINT('NONE',#145);
#131=CIRCLE('',#146,12.3310344827587);
#132=VERTEX_POINT('NONE',#147);
#133=CIRCLE('',#148,2.0);
#134=VERTEX_POINT('NONE',#149);
#135=CIRCLE('',#150,14.0);
#136=CIRCLE('',#151,2.0);
#137=FILL_AREA_STYLE_COLOUR('',#152);
#138=CIRCLE('',#153,12.3310344827587);
#139=FILL_AREA_STYLE_COLOUR('',#154);
#140=CIRCLE('',#155,14.0);
#141=FILL_AREA_STYLE_COLOUR('',#156);
#142=FILL_AREA_STYLE_COLOUR('',#157);
#143=COLOUR_RGB('',0.509803950786591,0.509803950786591,0.588235318660736);
#144=CARTESIAN_POINT('',(-1.97241379310345,1.73656264542186E-030,-12.3310344827587));
#145=CARTESIAN_POINT('',(-1.97241379310354,1.61231085487745E-015,12.3310344827587));
#146=AXIS2_PLACEMENT_3D('',#158,#159,#160);
#147=CARTESIAN_POINT('',(-5.08274520562293E-014,1.71450551880629E-015,14.0));
#148=AXIS2_PLACEMENT_3D('',#161,#162,#163);
#149=CARTESIAN_POINT('',(5.08274520562289E-014,-5.04144516088188E-044,-14.0));
#150=AXIS2_PLACEMENT_3D('',#164,#165,#166);
#151=AXIS2_PLACEMENT_3D('',#167,#168,#169);
#152=COLOUR_RGB('',0.509803950786591,0.509803950786591,0.588235318660736);
#153=AXIS2_PLACEMENT_3D('',#170,#171,#172);
#154=COLOUR_RGB('',0.509803950786591,0.509803950786591,0.588235318660736);
#155=AXIS2_PLACEMENT_3D('',#173,#174,#175);
#156=COLOUR_RGB('',0.509803950786591,0.509803950786591,0.588235318660736);
#157=COLOUR_RGB('',0.509803950786591,0.509803950786591,0.588235318660736);
#158=CARTESIAN_POINT('',(-1.9724137931035,1.73656264542186E-030,-4.52730236576875E-015));
#159=DIRECTION('',(1.0,-8.80425117434165E-031,3.6224965203738E-015));
#160=DIRECTION('',(3.6224965203738E-015,0.0,-1.0));
#161=CARTESIAN_POINT('',(-1.00827874695286E-013,1.46957615897682E-015,12.0));
#162=DIRECTION('',(1.32503709221614E-030,1.0,-1.22464679914735E-016));
#163=DIRECTION('',(0.0,1.22464679914735E-016,1.0));
#164=CARTESIAN_POINT('',(-2.09541177949331E-028,0.0,9.19104079997297E-016));
#165=DIRECTION('',(1.0,0.0,3.63053228973065E-015));
#166=DIRECTION('',(3.63053228973065E-015,0.0,-1.0));
#167=CARTESIAN_POINT('',(-1.36950997417507E-014,0.0,-12.0));
#168=DIRECTION('',(-8.80425117434165E-031,-1.0,-3.19641181753463E-045));
#169=DIRECTION('',(1.0,-8.80425117434165E-031,0.0));
#170=CARTESIAN_POINT('',(-1.9724137931035,1.73656264542186E-030,-4.52730236576875E-015));
#171=DIRECTION('',(1.0,-8.80425117434165E-031,3.6224965203738E-015));
#172=DIRECTION('',(3.6224965203738E-015,0.0,-1.0));
#173=CARTESIAN_POINT('',(-2.09541177949331E-028,0.0,9.19104079997297E-016));
#174=DIRECTION('',(1.0,0.0,3.63053228973065E-015));
#175=DIRECTION('',(3.63053228973065E-015,0.0,-1.0));
#176=PRESENTATION_LAYER_ASSIGNMENT('-1','NONE',(#29,#31,#33,#35,#37));
ENDSEC;
END-ISO-10303-21;
