ISO-10303-21;
HEADER;
FILE_DESCRIPTION(('STEP AP214'),'1');
FILE_NAME('cctmp_1429073B-083B-4199-B134-CF64478235A7_2020_11_12_13_33_40_622..stp','2020-11-12T12:33:40',('Bosch Rexroth AG'),('CADClick - www.CADClick.com'),'Spatial InterOp 3D',' ','unknown authorization - (Healing Option Enabled)');
FILE_SCHEMA(('AUTOMOTIVE_DESIGN'));
ENDSEC;
DATA;
#1=MECHANICAL_DESIGN_GEOMETRIC_PRESENTATION_REPRESENTATION(' ',(#10,#11,#12,#13,#14,#15,#16,#17,#18,#19,#20,#21,#22),#6);
#2=PRODUCT_DEFINITION_CONTEXT('',#23,'design');
#3=APPLICATION_PROTOCOL_DEFINITION('INTERNATIONAL STANDARD','automotive_design',1994,#23);
#4=PRODUCT_CATEGORY_RELATIONSHIP('NONE','NONE',#24,#25);
#5=SHAPE_DEFINITION_REPRESENTATION(#26,#27);
#6= (GEOMETRIC_REPRESENTATION_CONTEXT(3)GLOBAL_UNCERTAINTY_ASSIGNED_CONTEXT((#30))GLOBAL_UNIT_ASSIGNED_CONTEXT((#32,#33,#34))REPRESENTATION_CONTEXT('NONE','WORKSPACE'));
#10=STYLED_ITEM('',(#36),#37);
#11=STYLED_ITEM('',(#38),#39);
#12=STYLED_ITEM('',(#40),#41);
#13=STYLED_ITEM('',(#42),#43);
#14=STYLED_ITEM('',(#44),#45);
#15=STYLED_ITEM('',(#46),#47);
#16=STYLED_ITEM('',(#48),#49);
#17=STYLED_ITEM('',(#50),#51);
#18=STYLED_ITEM('',(#52),#53);
#19=STYLED_ITEM('',(#54),#55);
#20=STYLED_ITEM('',(#56),#57);
#21=STYLED_ITEM('',(#58),#59);
#22=STYLED_ITEM('',(#60),#61);
#23=APPLICATION_CONTEXT(' ');
#24=PRODUCT_CATEGORY('part','NONE');
#25=PRODUCT_RELATED_PRODUCT_CATEGORY('detail',' ',(#62));
#26=PRODUCT_DEFINITION_SHAPE('NONE','NONE',#63);
#27=ADVANCED_BREP_SHAPE_REPRESENTATION('2020_11_12__13-33-40-622',(#61,#64),#6);
#30=UNCERTAINTY_MEASURE_WITH_UNIT(LENGTH_MEASURE(1.0E-006),#32,'','');
#32= (CONVERSION_BASED_UNIT('MILLIMETRE',#67)LENGTH_UNIT()NAMED_UNIT(#70));
#33= (NAMED_UNIT(#72)PLANE_ANGLE_UNIT()SI_UNIT($,.RADIAN.));
#34= (NAMED_UNIT(#72)SOLID_ANGLE_UNIT()SI_UNIT($,.STERADIAN.));
#36=PRESENTATION_STYLE_ASSIGNMENT((#78));
#37=ADVANCED_FACE('',(#79),#80,.T.);
#38=PRESENTATION_STYLE_ASSIGNMENT((#81));
#39=ADVANCED_FACE('',(#82),#83,.F.);
#40=PRESENTATION_STYLE_ASSIGNMENT((#84));
#41=ADVANCED_FACE('',(#85),#86,.T.);
#42=PRESENTATION_STYLE_ASSIGNMENT((#87));
#43=ADVANCED_FACE('',(#88),#89,.T.);
#44=PRESENTATION_STYLE_ASSIGNMENT((#90));
#45=ADVANCED_FACE('',(#91),#92,.T.);
#46=PRESENTATION_STYLE_ASSIGNMENT((#93));
#47=ADVANCED_FACE('',(#94),#95,.T.);
#48=PRESENTATION_STYLE_ASSIGNMENT((#96));
#49=ADVANCED_FACE('',(#97,#98),#99,.F.);
#50=PRESENTATION_STYLE_ASSIGNMENT((#100));
#51=ADVANCED_FACE('',(#101,#102),#103,.T.);
#52=PRESENTATION_STYLE_ASSIGNMENT((#104));
#53=ADVANCED_FACE('',(#105),#106,.F.);
#54=PRESENTATION_STYLE_ASSIGNMENT((#107));
#55=ADVANCED_FACE('',(#108,#109),#110,.F.);
#56=PRESENTATION_STYLE_ASSIGNMENT((#111));
#57=ADVANCED_FACE('',(#112),#113,.T.);
#58=PRESENTATION_STYLE_ASSIGNMENT((#114));
#59=ADVANCED_FACE('',(#115,#116),#117,.T.);
#60=PRESENTATION_STYLE_ASSIGNMENT((#118));
#61=MANIFOLD_SOLID_BREP('2020_11_12__13-33-40-622',#119);
#62=PRODUCT('2020_11_12__13-33-40-622','','PART--DESC',(#120));
#63=PRODUCT_DEFINITION('','NONE',#121,#2);
#64=AXIS2_PLACEMENT_3D('',#122,#123,#124);
#67=LENGTH_MEASURE_WITH_UNIT(LENGTH_MEASURE(1.0),#125);
#70=DIMENSIONAL_EXPONENTS(1.0,0.0,0.0,0.0,0.0,0.0,0.0);
#72=DIMENSIONAL_EXPONENTS(0.0,0.0,0.0,0.0,0.0,0.0,0.0);
#78=SURFACE_STYLE_USAGE(.BOTH.,#126);
#79=FACE_OUTER_BOUND('',#127,.T.);
#80=CYLINDRICAL_SURFACE('',#128,15.8187829268926);
#81=SURFACE_STYLE_USAGE(.BOTH.,#129);
#82=FACE_OUTER_BOUND('',#130,.T.);
#83=CYLINDRICAL_SURFACE('',#131,2.1);
#84=SURFACE_STYLE_USAGE(.BOTH.,#132);
#85=FACE_OUTER_BOUND('',#133,.T.);
#86=CYLINDRICAL_SURFACE('',#134,4.02267701324164);
#87=SURFACE_STYLE_USAGE(.BOTH.,#135);
#88=FACE_OUTER_BOUND('',#136,.T.);
#89=CYLINDRICAL_SURFACE('',#137,4.02267701324685);
#90=SURFACE_STYLE_USAGE(.BOTH.,#138);
#91=FACE_OUTER_BOUND('',#139,.T.);
#92=CYLINDRICAL_SURFACE('',#140,4.02267701324685);
#93=SURFACE_STYLE_USAGE(.BOTH.,#141);
#94=FACE_OUTER_BOUND('',#142,.T.);
#95=CYLINDRICAL_SURFACE('',#143,4.02267701324164);
#96=SURFACE_STYLE_USAGE(.BOTH.,#144);
#97=FACE_OUTER_BOUND('',#145,.T.);
#98=FACE_BOUND('',#146,.T.);
#99=PLANE('',#147);
#100=SURFACE_STYLE_USAGE(.BOTH.,#148);
#101=FACE_OUTER_BOUND('',#149,.T.);
#102=FACE_BOUND('',#150,.T.);
#103=PLANE('',#151);
#104=SURFACE_STYLE_USAGE(.BOTH.,#152);
#105=FACE_OUTER_BOUND('',#153,.T.);
#106=CYLINDRICAL_SURFACE('',#154,2.1);
#107=SURFACE_STYLE_USAGE(.BOTH.,#155);
#108=FACE_OUTER_BOUND('',#156,.T.);
#109=FACE_BOUND('',#157,.T.);
#110=PLANE('',#158);
#111=SURFACE_STYLE_USAGE(.BOTH.,#159);
#112=FACE_OUTER_BOUND('',#160,.T.);
#113=CYLINDRICAL_SURFACE('',#161,15.8187829268926);
#114=SURFACE_STYLE_USAGE(.BOTH.,#162);
#115=FACE_OUTER_BOUND('',#163,.T.);
#116=FACE_BOUND('',#164,.T.);
#117=PLANE('',#165);
#118=SURFACE_STYLE_USAGE(.BOTH.,#166);
#119=CLOSED_SHELL('',(#37,#39,#41,#43,#45,#47,#49,#51,#53,#55,#57,#59));
#120=PRODUCT_CONTEXT('',#23,'mechanical');
#121=PRODUCT_DEFINITION_FORMATION_WITH_SPECIFIED_SOURCE(' ','NONE',#62,.NOT_KNOWN.);
#122=CARTESIAN_POINT('',(0.0,0.0,0.0));
#123=DIRECTION('',(0.0,0.0,1.0));
#124=DIRECTION('',(1.0,0.0,0.0));
#125= (NAMED_UNIT(#70)LENGTH_UNIT()SI_UNIT(.MILLI.,.METRE.));
#126=SURFACE_SIDE_STYLE('',(#168));
#127=EDGE_LOOP('',(#169,#170,#171,#172));
#128=AXIS2_PLACEMENT_3D('',#173,#174,#175);
#129=SURFACE_SIDE_STYLE('',(#176));
#130=EDGE_LOOP('',(#177,#178,#179,#180));
#131=AXIS2_PLACEMENT_3D('',#181,#182,#183);
#132=SURFACE_SIDE_STYLE('',(#184));
#133=EDGE_LOOP('',(#185,#186,#187,#188));
#134=AXIS2_PLACEMENT_3D('',#189,#190,#191);
#135=SURFACE_SIDE_STYLE('',(#192));
#136=EDGE_LOOP('',(#193,#194,#195,#196,#197,#198));
#137=AXIS2_PLACEMENT_3D('',#199,#200,#201);
#138=SURFACE_SIDE_STYLE('',(#202));
#139=EDGE_LOOP('',(#203,#204,#205,#206));
#140=AXIS2_PLACEMENT_3D('',#207,#208,#209);
#141=SURFACE_SIDE_STYLE('',(#210));
#142=EDGE_LOOP('',(#211,#212,#213,#214,#215,#216));
#143=AXIS2_PLACEMENT_3D('',#217,#218,#219);
#144=SURFACE_SIDE_STYLE('',(#220));
#145=EDGE_LOOP('',(#221,#222,#223));
#146=EDGE_LOOP('',(#224,#225));
#147=AXIS2_PLACEMENT_3D('',#226,#227,#228);
#148=SURFACE_SIDE_STYLE('',(#229));
#149=EDGE_LOOP('',(#230,#231,#232));
#150=EDGE_LOOP('',(#233,#234));
#151=AXIS2_PLACEMENT_3D('',#235,#236,#237);
#152=SURFACE_SIDE_STYLE('',(#238));
#153=EDGE_LOOP('',(#239,#240,#241,#242));
#154=AXIS2_PLACEMENT_3D('',#243,#244,#245);
#155=SURFACE_SIDE_STYLE('',(#246));
#156=EDGE_LOOP('',(#247,#248,#249));
#157=EDGE_LOOP('',(#250,#251,#252));
#158=AXIS2_PLACEMENT_3D('',#253,#254,#255);
#159=SURFACE_SIDE_STYLE('',(#256));
#160=EDGE_LOOP('',(#257,#258,#259,#260,#261,#262));
#161=AXIS2_PLACEMENT_3D('',#263,#264,#265);
#162=SURFACE_SIDE_STYLE('',(#266));
#163=EDGE_LOOP('',(#267,#268,#269));
#164=EDGE_LOOP('',(#270,#271,#272));
#165=AXIS2_PLACEMENT_3D('',#273,#274,#275);
#166=SURFACE_SIDE_STYLE('',(#276));
#168=SURFACE_STYLE_FILL_AREA(#277);
#169=ORIENTED_EDGE('',*,*,#278,.F.);
#170=ORIENTED_EDGE('',*,*,#279,.T.);
#171=ORIENTED_EDGE('',*,*,#280,.F.);
#172=ORIENTED_EDGE('',*,*,#281,.T.);
#173=CARTESIAN_POINT('',(5.33291188986595E-010,10.0,3.4728997455602E-010));
#174=DIRECTION('',(3.88245160077846E-017,-1.0,1.97602773494363E-016));
#175=DIRECTION('',(-0.837974315671867,-1.40367691971767E-016,-0.545709672146523));
#176=SURFACE_STYLE_FILL_AREA(#282);
#177=ORIENTED_EDGE('',*,*,#283,.F.);
#178=ORIENTED_EDGE('',*,*,#284,.F.);
#179=ORIENTED_EDGE('',*,*,#285,.F.);
#180=ORIENTED_EDGE('',*,*,#286,.F.);
#181=CARTESIAN_POINT('',(0.0,0.0,0.0));
#182=DIRECTION('',(8.94400119298199E-032,1.0,-2.220446E-016));
#183=DIRECTION('',(-0.545709672168243,1.86067671730493E-016,0.837974315657723));
#184=SURFACE_STYLE_FILL_AREA(#287);
#185=ORIENTED_EDGE('',*,*,#288,.F.);
#186=ORIENTED_EDGE('',*,*,#289,.F.);
#187=ORIENTED_EDGE('',*,*,#290,.F.);
#188=ORIENTED_EDGE('',*,*,#291,.T.);
#189=CARTESIAN_POINT('',(7.11541936482263E-012,11.5,6.85701495584112E-012));
#190=DIRECTION('',(-1.89688590162186E-016,-1.0,2.91279731424061E-016));
#191=DIRECTION('',(-0.837974315995953,-2.45129332601238E-032,-0.545709671648868));
#192=SURFACE_STYLE_FILL_AREA(#292);
#193=ORIENTED_EDGE('',*,*,#293,.F.);
#194=ORIENTED_EDGE('',*,*,#294,.T.);
#195=ORIENTED_EDGE('',*,*,#295,.T.);
#196=ORIENTED_EDGE('',*,*,#296,.F.);
#197=ORIENTED_EDGE('',*,*,#297,.F.);
#198=ORIENTED_EDGE('',*,*,#298,.F.);
#199=CARTESIAN_POINT('',(-2.32092123297889E-012,-9.99997787662601,-1.0325074129014E-013));
#200=DIRECTION('',(1.55847314733769E-017,-1.0,-2.39314151369847E-017));
#201=DIRECTION('',(0.837974315998113,-1.53205832875575E-033,0.54570967164555));
#202=SURFACE_STYLE_FILL_AREA(#299);
#203=ORIENTED_EDGE('',*,*,#293,.T.);
#204=ORIENTED_EDGE('',*,*,#300,.F.);
#205=ORIENTED_EDGE('',*,*,#296,.T.);
#206=ORIENTED_EDGE('',*,*,#301,.T.);
#207=CARTESIAN_POINT('',(-2.32092123297889E-012,-9.99997787662601,-1.0325074129014E-013));
#208=DIRECTION('',(1.55847314733769E-017,-1.0,-2.39314151369847E-017));
#209=DIRECTION('',(0.837974315998113,-1.53205832875575E-033,0.54570967164555));
#210=SURFACE_STYLE_FILL_AREA(#302);
#211=ORIENTED_EDGE('',*,*,#288,.T.);
#212=ORIENTED_EDGE('',*,*,#303,.T.);
#213=ORIENTED_EDGE('',*,*,#304,.T.);
#214=ORIENTED_EDGE('',*,*,#290,.T.);
#215=ORIENTED_EDGE('',*,*,#305,.F.);
#216=ORIENTED_EDGE('',*,*,#306,.F.);
#217=CARTESIAN_POINT('',(7.11541936482263E-012,11.5,6.85701495584112E-012));
#218=DIRECTION('',(-1.89688590162186E-016,-1.0,2.91279731424061E-016));
#219=DIRECTION('',(-0.837974315995953,-2.45129332601238E-032,-0.545709671648868));
#220=SURFACE_STYLE_FILL_AREA(#307);
#221=ORIENTED_EDGE('',*,*,#304,.F.);
#222=ORIENTED_EDGE('',*,*,#303,.F.);
#223=ORIENTED_EDGE('',*,*,#291,.F.);
#224=ORIENTED_EDGE('',*,*,#286,.T.);
#225=ORIENTED_EDGE('',*,*,#308,.T.);
#226=CARTESIAN_POINT('',(8.299139E-012,11.5,1.080025E-012));
#227=DIRECTION('',(0.0,-1.0,0.0));
#228=DIRECTION('',(0.0,0.0,-1.0));
#229=SURFACE_STYLE_FILL_AREA(#309);
#230=ORIENTED_EDGE('',*,*,#295,.F.);
#231=ORIENTED_EDGE('',*,*,#294,.F.);
#232=ORIENTED_EDGE('',*,*,#301,.F.);
#233=ORIENTED_EDGE('',*,*,#284,.T.);
#234=ORIENTED_EDGE('',*,*,#310,.T.);
#235=CARTESIAN_POINT('',(8.299139E-012,-11.5,1.080025E-012));
#236=DIRECTION('',(0.0,-1.0,0.0));
#237=DIRECTION('',(0.0,0.0,-1.0));
#238=SURFACE_STYLE_FILL_AREA(#311);
#239=ORIENTED_EDGE('',*,*,#283,.T.);
#240=ORIENTED_EDGE('',*,*,#308,.F.);
#241=ORIENTED_EDGE('',*,*,#285,.T.);
#242=ORIENTED_EDGE('',*,*,#310,.F.);
#243=CARTESIAN_POINT('',(0.0,0.0,0.0));
#244=DIRECTION('',(8.94400119298199E-032,1.0,-2.220446E-016));
#245=DIRECTION('',(-0.545709672168243,1.86067671730493E-016,0.837974315657723));
#246=SURFACE_STYLE_FILL_AREA(#312);
#247=ORIENTED_EDGE('',*,*,#313,.F.);
#248=ORIENTED_EDGE('',*,*,#314,.F.);
#249=ORIENTED_EDGE('',*,*,#281,.F.);
#250=ORIENTED_EDGE('',*,*,#305,.T.);
#251=ORIENTED_EDGE('',*,*,#289,.T.);
#252=ORIENTED_EDGE('',*,*,#306,.T.);
#253=CARTESIAN_POINT('',(0.017235119894281,10.0,0.003048070581713));
#254=DIRECTION('',(0.0,-1.0,0.0));
#255=DIRECTION('',(0.0,0.0,-1.0));
#256=SURFACE_STYLE_FILL_AREA(#315);
#257=ORIENTED_EDGE('',*,*,#278,.T.);
#258=ORIENTED_EDGE('',*,*,#314,.T.);
#259=ORIENTED_EDGE('',*,*,#313,.T.);
#260=ORIENTED_EDGE('',*,*,#280,.T.);
#261=ORIENTED_EDGE('',*,*,#316,.T.);
#262=ORIENTED_EDGE('',*,*,#317,.T.);
#263=CARTESIAN_POINT('',(5.33291188986595E-010,10.0,3.4728997455602E-010));
#264=DIRECTION('',(3.88245160077846E-017,-1.0,1.97602773494363E-016));
#265=DIRECTION('',(-0.837974315671867,-1.40367691971767E-016,-0.545709672146523));
#266=SURFACE_STYLE_FILL_AREA(#318);
#267=ORIENTED_EDGE('',*,*,#317,.F.);
#268=ORIENTED_EDGE('',*,*,#316,.F.);
#269=ORIENTED_EDGE('',*,*,#279,.F.);
#270=ORIENTED_EDGE('',*,*,#297,.T.);
#271=ORIENTED_EDGE('',*,*,#300,.T.);
#272=ORIENTED_EDGE('',*,*,#298,.T.);
#273=CARTESIAN_POINT('',(0.017235119894281,-10.0,0.003048070581713));
#274=DIRECTION('',(0.0,-1.0,0.0));
#275=DIRECTION('',(0.0,0.0,-1.0));
#276=SURFACE_STYLE_FILL_AREA(#319);
#277=FILL_AREA_STYLE('',(#320));
#278=EDGE_CURVE('',#321,#322,#323,.T.);
#279=EDGE_CURVE('',#321,#324,#325,.T.);
#280=EDGE_CURVE('',#326,#324,#327,.T.);
#281=EDGE_CURVE('',#326,#322,#328,.T.);
#282=FILL_AREA_STYLE('',(#329));
#283=EDGE_CURVE('',#330,#331,#332,.T.);
#284=EDGE_CURVE('',#333,#330,#334,.T.);
#285=EDGE_CURVE('',#335,#333,#336,.T.);
#286=EDGE_CURVE('',#331,#335,#337,.T.);
#287=FILL_AREA_STYLE('',(#338));
#288=EDGE_CURVE('',#339,#340,#341,.T.);
#289=EDGE_CURVE('',#342,#339,#343,.T.);
#290=EDGE_CURVE('',#344,#342,#345,.T.);
#291=EDGE_CURVE('',#344,#340,#346,.T.);
#292=FILL_AREA_STYLE('',(#347));
#293=EDGE_CURVE('',#348,#349,#350,.T.);
#294=EDGE_CURVE('',#348,#351,#352,.T.);
#295=EDGE_CURVE('',#351,#353,#354,.T.);
#296=EDGE_CURVE('',#355,#353,#356,.T.);
#297=EDGE_CURVE('',#357,#355,#358,.T.);
#298=EDGE_CURVE('',#349,#357,#359,.T.);
#299=FILL_AREA_STYLE('',(#360));
#300=EDGE_CURVE('',#355,#349,#361,.T.);
#301=EDGE_CURVE('',#353,#348,#362,.T.);
#302=FILL_AREA_STYLE('',(#363));
#303=EDGE_CURVE('',#340,#364,#365,.T.);
#304=EDGE_CURVE('',#364,#344,#366,.T.);
#305=EDGE_CURVE('',#367,#342,#368,.T.);
#306=EDGE_CURVE('',#339,#367,#369,.T.);
#307=FILL_AREA_STYLE('',(#370));
#308=EDGE_CURVE('',#335,#331,#371,.T.);
#309=FILL_AREA_STYLE('',(#372));
#310=EDGE_CURVE('',#330,#333,#373,.T.);
#311=FILL_AREA_STYLE('',(#374));
#312=FILL_AREA_STYLE('',(#375));
#313=EDGE_CURVE('',#376,#326,#377,.T.);
#314=EDGE_CURVE('',#322,#376,#378,.T.);
#315=FILL_AREA_STYLE('',(#379));
#316=EDGE_CURVE('',#324,#380,#381,.T.);
#317=EDGE_CURVE('',#380,#321,#382,.T.);
#318=FILL_AREA_STYLE('',(#383));
#319=FILL_AREA_STYLE('',(#384));
#320=FILL_AREA_STYLE_COLOUR('',#385);
#321=VERTEX_POINT('',#386);
#322=VERTEX_POINT('',#387);
#323=LINE('',#388,#389);
#324=VERTEX_POINT('',#390);
#325=CIRCLE('',#391,15.8187829262522);
#326=VERTEX_POINT('',#392);
#327=LINE('',#393,#394);
#328=CIRCLE('',#395,15.8187829262522);
#329=FILL_AREA_STYLE_COLOUR('',#396);
#330=VERTEX_POINT('',#397);
#331=VERTEX_POINT('',#398);
#332=LINE('',#399,#400);
#333=VERTEX_POINT('',#401);
#334=CIRCLE('',#402,2.1);
#335=VERTEX_POINT('',#403);
#336=LINE('',#404,#405);
#337=CIRCLE('',#406,2.1);
#338=FILL_AREA_STYLE_COLOUR('',#407);
#339=VERTEX_POINT('',#408);
#340=VERTEX_POINT('',#409);
#341=LINE('',#410,#411);
#342=VERTEX_POINT('',#412);
#343=CIRCLE('',#413,4.02267701324482);
#344=VERTEX_POINT('',#414);
#345=LINE('',#415,#416);
#346=CIRCLE('',#417,4.02267701324482);
#347=FILL_AREA_STYLE_COLOUR('',#418);
#348=VERTEX_POINT('',#419);
#349=VERTEX_POINT('',#420);
#350=LINE('',#421,#422);
#351=VERTEX_POINT('',#423);
#352=CIRCLE('',#424,4.02267701324482);
#353=VERTEX_POINT('',#425);
#354=CIRCLE('',#426,4.02267701324482);
#355=VERTEX_POINT('',#427);
#356=LINE('',#428,#429);
#357=VERTEX_POINT('',#430);
#358=CIRCLE('',#431,4.02267701324482);
#359=CIRCLE('',#432,4.02267701324482);
#360=FILL_AREA_STYLE_COLOUR('',#433);
#361=CIRCLE('',#434,4.02267701324482);
#362=CIRCLE('',#435,4.02267701324482);
#363=FILL_AREA_STYLE_COLOUR('',#436);
#364=VERTEX_POINT('',#437);
#365=CIRCLE('',#438,4.02267701324482);
#366=CIRCLE('',#439,4.02267701324482);
#367=VERTEX_POINT('',#440);
#368=CIRCLE('',#441,4.02267701324482);
#369=CIRCLE('',#442,4.02267701324482);
#370=FILL_AREA_STYLE_COLOUR('',#443);
#371=CIRCLE('',#444,2.1);
#372=FILL_AREA_STYLE_COLOUR('',#445);
#373=CIRCLE('',#446,2.1);
#374=FILL_AREA_STYLE_COLOUR('',#447);
#375=FILL_AREA_STYLE_COLOUR('',#448);
#376=VERTEX_POINT('',#449);
#377=CIRCLE('',#450,15.8187829262522);
#378=CIRCLE('',#451,15.8187829262522);
#379=FILL_AREA_STYLE_COLOUR('',#452);
#380=VERTEX_POINT('',#453);
#381=CIRCLE('',#454,15.8187829262522);
#382=CIRCLE('',#455,15.8187829262522);
#383=FILL_AREA_STYLE_COLOUR('',#456);
#384=FILL_AREA_STYLE_COLOUR('',#457);
#385=COLOUR_RGB('',0.862745106220245,0.0,0.0);
#386=CARTESIAN_POINT('',(-13.2557337973914,-10.0,-8.63246284444429));
#387=CARTESIAN_POINT('',(-13.2557337973914,10.0,-8.63246284444429));
#388=CARTESIAN_POINT('',(-13.2557337973914,10.0,-8.63246284444429));
#389=VECTOR('',#458,1.0);
#390=CARTESIAN_POINT('',(13.2557337973847,-10.0,8.63246284443992));
#391=AXIS2_PLACEMENT_3D('',#459,#460,#461);
#392=CARTESIAN_POINT('',(13.2557337973847,10.0,8.63246284443992));
#393=CARTESIAN_POINT('',(13.2557337984579,10.0,8.63246284513887));
#394=VECTOR('',#462,1.0);
#395=AXIS2_PLACEMENT_3D('',#463,#464,#465);
#396=COLOUR_RGB('',0.862745106220245,0.0,0.0);
#397=CARTESIAN_POINT('',(-1.14599031155331,-11.5,1.75974606288122));
#398=CARTESIAN_POINT('',(-1.1459903115533,11.5,1.75974606288122));
#399=CARTESIAN_POINT('',(-1.14599031155331,3.90742110634035E-016,1.75974606288122));
#400=VECTOR('',#466,1.0);
#401=CARTESIAN_POINT('',(1.1459903115533,-11.5,-1.75974606288122));
#402=AXIS2_PLACEMENT_3D('',#467,#468,#469);
#403=CARTESIAN_POINT('',(1.14599031155331,11.5,-1.75974606288122));
#404=CARTESIAN_POINT('',(1.14599031155331,-3.90742110634035E-016,-1.75974606288122));
#405=VECTOR('',#470,1.0);
#406=AXIS2_PLACEMENT_3D('',#471,#472,#473);
#407=COLOUR_RGB('',0.862745106220245,0.0,0.0);
#408=CARTESIAN_POINT('',(-3.37090001863669,10.0,-2.19521375203869));
#409=CARTESIAN_POINT('',(-3.37090001863669,11.5,-2.19521375203869));
#410=CARTESIAN_POINT('',(-3.37090001863669,11.5,-2.19521375203869));
#411=VECTOR('',#474,1.0);
#412=CARTESIAN_POINT('',(3.37090001865625,10.0,2.19521375205587));
#413=AXIS2_PLACEMENT_3D('',#475,#476,#477);
#414=CARTESIAN_POINT('',(3.37090001865625,11.5,2.19521375205587));
#415=CARTESIAN_POINT('',(3.37090001865092,11.5,2.1952137520524));
#416=VECTOR('',#478,1.0);
#417=AXIS2_PLACEMENT_3D('',#479,#480,#481);
#418=COLOUR_RGB('',0.862745106220245,0.0,0.0);
#419=CARTESIAN_POINT('',(3.37090001865454,-11.5,2.19521375203493));
#420=CARTESIAN_POINT('',(3.37090001865454,-10.0,2.19521375203494));
#421=CARTESIAN_POINT('',(3.37090001865454,-10.75,2.19521375203494));
#422=VECTOR('',#482,1.0);
#423=CARTESIAN_POINT('',(2.19521375203488,-11.5,-3.37090001865454));
#424=AXIS2_PLACEMENT_3D('',#483,#484,#485);
#425=CARTESIAN_POINT('',(-3.37090001865579,-11.5,-2.19521375203293));
#426=AXIS2_PLACEMENT_3D('',#486,#487,#488);
#427=CARTESIAN_POINT('',(-3.37090001865579,-10.0,-2.19521375203293));
#428=CARTESIAN_POINT('',(-3.37090001865918,-10.75,-2.19521375203514));
#429=VECTOR('',#489,1.0);
#430=CARTESIAN_POINT('',(2.19521375203488,-10.0,-3.37090001865454));
#431=AXIS2_PLACEMENT_3D('',#490,#491,#492);
#432=AXIS2_PLACEMENT_3D('',#493,#494,#495);
#433=COLOUR_RGB('',0.862745106220245,0.0,0.0);
#434=AXIS2_PLACEMENT_3D('',#496,#497,#498);
#435=AXIS2_PLACEMENT_3D('',#499,#500,#501);
#436=COLOUR_RGB('',0.862745106220245,0.0,0.0);
#437=CARTESIAN_POINT('',(2.19521375203488,11.5,-3.37090001865454));
#438=AXIS2_PLACEMENT_3D('',#502,#503,#504);
#439=AXIS2_PLACEMENT_3D('',#505,#506,#507);
#440=CARTESIAN_POINT('',(2.19521375203488,10.0,-3.37090001865454));
#441=AXIS2_PLACEMENT_3D('',#508,#509,#510);
#442=AXIS2_PLACEMENT_3D('',#511,#512,#513);
#443=COLOUR_RGB('',0.862745106220245,0.0,0.0);
#444=AXIS2_PLACEMENT_3D('',#514,#515,#516);
#445=COLOUR_RGB('',0.862745106220245,0.0,0.0);
#446=AXIS2_PLACEMENT_3D('',#517,#518,#519);
#447=COLOUR_RGB('',0.862745106220245,0.0,0.0);
#448=COLOUR_RGB('',0.862745106220245,0.0,0.0);
#449=CARTESIAN_POINT('',(8.63246284398895,10.0,-13.2557337976831));
#450=AXIS2_PLACEMENT_3D('',#520,#521,#522);
#451=AXIS2_PLACEMENT_3D('',#523,#524,#525);
#452=COLOUR_RGB('',0.862745106220245,0.0,0.0);
#453=CARTESIAN_POINT('',(8.63246284398895,-10.0,-13.2557337976831));
#454=AXIS2_PLACEMENT_3D('',#526,#527,#528);
#455=AXIS2_PLACEMENT_3D('',#529,#530,#531);
#456=COLOUR_RGB('',0.862745106220245,0.0,0.0);
#457=COLOUR_RGB('',0.752941191196442,0.752941191196442,0.752941191196442);
#458=DIRECTION('',(-3.88245160077846E-017,1.0,-1.97602773494363E-016));
#459=CARTESIAN_POINT('',(-3.36508598763885E-012,-10.0,-2.16937579011756E-012));
#460=DIRECTION('',(0.0,1.0,0.0));
#461=DIRECTION('',(-0.545709672124592,0.0,0.83797431568615));
#462=DIRECTION('',(3.88245160077846E-017,-1.0,1.97602773494363E-016));
#463=CARTESIAN_POINT('',(-3.36508598763885E-012,10.0,-2.17159623616681E-012));
#464=DIRECTION('',(0.0,-1.0,0.0));
#465=DIRECTION('',(0.545709672118089,0.0,-0.837974315690384));
#466=DIRECTION('',(8.94400119298199E-032,1.0,-2.220446E-016));
#467=CARTESIAN_POINT('',(0.0,-11.5,0.0));
#468=DIRECTION('',(1.015389E-016,1.0,-1.559199E-016));
#469=DIRECTION('',(-0.545709672168243,1.86067631331245E-016,0.837974315657723));
#470=DIRECTION('',(-8.94400119298199E-032,-1.0,2.220446E-016));
#471=CARTESIAN_POINT('',(0.0,11.5,0.0));
#472=DIRECTION('',(-1.015389E-016,-1.0,1.559199E-016));
#473=DIRECTION('',(-0.545709672168243,1.86067631331245E-016,0.837974315657723));
#474=DIRECTION('',(1.89688590162186E-016,1.0,-2.91279731424061E-016));
#475=CARTESIAN_POINT('',(1.07924780223811E-011,10.0,7.03326286100037E-012));
#476=DIRECTION('',(0.0,-1.0,0.0));
#477=DIRECTION('',(0.545709671643101,0.0,-0.837974315999708));
#478=DIRECTION('',(-1.89688590162186E-016,-1.0,2.91279731424061E-016));
#479=CARTESIAN_POINT('',(1.07941433569181E-011,11.5,7.03603841856193E-012));
#480=DIRECTION('',(0.0,-1.0,0.0));
#481=DIRECTION('',(0.545709671643101,0.0,-0.837974315999708));
#482=DIRECTION('',(-1.55847314733769E-017,1.0,2.39314151369847E-017));
#483=CARTESIAN_POINT('',(1.52655665885959E-014,-11.5,1.94289029309402E-014));
#484=DIRECTION('',(0.0,1.0,0.0));
#485=DIRECTION('',(0.54570967164578,0.0,-0.837974315997963));
#486=CARTESIAN_POINT('',(1.52655665885959E-014,-11.5,1.94289029309402E-014));
#487=DIRECTION('',(0.0,1.0,0.0));
#488=DIRECTION('',(0.54570967164578,0.0,-0.837974315997963));
#489=DIRECTION('',(1.55847314733769E-017,-1.0,-2.39314151369847E-017));
#490=CARTESIAN_POINT('',(1.58206781009085E-014,-10.0,2.05391259555654E-014));
#491=DIRECTION('',(0.0,1.0,0.0));
#492=DIRECTION('',(0.545709671645781,0.0,-0.837974315997963));
#493=CARTESIAN_POINT('',(1.58206781009085E-014,-10.0,2.05391259555654E-014));
#494=DIRECTION('',(0.0,1.0,0.0));
#495=DIRECTION('',(0.545709671645781,0.0,-0.837974315997963));
#496=CARTESIAN_POINT('',(1.58206781009085E-014,-10.0,2.05391259555654E-014));
#497=DIRECTION('',(0.0,1.0,0.0));
#498=DIRECTION('',(0.545709671645781,0.0,-0.837974315997963));
#499=CARTESIAN_POINT('',(1.52655665885959E-014,-11.5,1.94289029309402E-014));
#500=DIRECTION('',(0.0,1.0,0.0));
#501=DIRECTION('',(0.54570967164578,0.0,-0.837974315997963));
#502=CARTESIAN_POINT('',(1.07941433569181E-011,11.5,7.03603841856193E-012));
#503=DIRECTION('',(0.0,-1.0,0.0));
#504=DIRECTION('',(0.545709671643101,0.0,-0.837974315999708));
#505=CARTESIAN_POINT('',(1.07941433569181E-011,11.5,7.03603841856193E-012));
#506=DIRECTION('',(0.0,-1.0,0.0));
#507=DIRECTION('',(0.545709671643101,0.0,-0.837974315999708));
#508=CARTESIAN_POINT('',(1.07924780223811E-011,10.0,7.03326286100037E-012));
#509=DIRECTION('',(0.0,-1.0,0.0));
#510=DIRECTION('',(0.545709671643101,0.0,-0.837974315999708));
#511=CARTESIAN_POINT('',(1.07924780223811E-011,10.0,7.03326286100037E-012));
#512=DIRECTION('',(0.0,-1.0,0.0));
#513=DIRECTION('',(0.545709671643101,0.0,-0.837974315999708));
#514=CARTESIAN_POINT('',(0.0,11.5,0.0));
#515=DIRECTION('',(-1.015389E-016,-1.0,1.559199E-016));
#516=DIRECTION('',(-0.545709672168243,1.86067631331245E-016,0.837974315657723));
#517=CARTESIAN_POINT('',(0.0,-11.5,0.0));
#518=DIRECTION('',(1.015389E-016,1.0,-1.559199E-016));
#519=DIRECTION('',(-0.545709672168243,1.86067631331245E-016,0.837974315657723));
#520=CARTESIAN_POINT('',(-3.36508598763885E-012,10.0,-2.17159623616681E-012));
#521=DIRECTION('',(0.0,-1.0,0.0));
#522=DIRECTION('',(0.545709672118089,0.0,-0.837974315690384));
#523=CARTESIAN_POINT('',(-3.36508598763885E-012,10.0,-2.17159623616681E-012));
#524=DIRECTION('',(0.0,-1.0,0.0));
#525=DIRECTION('',(0.545709672118089,0.0,-0.837974315690384));
#526=CARTESIAN_POINT('',(-3.36508598763885E-012,-10.0,-2.16937579011756E-012));
#527=DIRECTION('',(0.0,1.0,0.0));
#528=DIRECTION('',(-0.545709672124592,0.0,0.83797431568615));
#529=CARTESIAN_POINT('',(-3.36508598763885E-012,-10.0,-2.16937579011756E-012));
#530=DIRECTION('',(0.0,1.0,0.0));
#531=DIRECTION('',(-0.545709672124592,0.0,0.83797431568615));
ENDSEC;
END-ISO-10303-21;
