ISO-10303-21;
HEADER;
FILE_DESCRIPTION(('STEP AP214'),'1');
FILE_NAME('cctmp_A1CBDB57-FC27-4A9C-A5B4-D6893CE213C7_2020_1_13_14_16_30_25..stp','2020-01-13T13:16:30',('Bosch Rexroth AG'),('CADClick - www.CADClick.com'),'Spatial InterOp 3D',' ','unknown authorization - (Healing Option Enabled)');
FILE_SCHEMA(('AUTOMOTIVE_DESIGN'));
ENDSEC;
DATA;
#1=MECHANICAL_DESIGN_GEOMETRIC_PRESENTATION_REPRESENTATION(' ',(#10,#11,#12,#13,#14,#15,#16,#17,#18,#19,#20,#21,#22,#23,#24,#25,#26),#6);
#2=PRODUCT_DEFINITION_CONTEXT('',#27,'design');
#3=APPLICATION_PROTOCOL_DEFINITION('INTERNATIONAL STANDARD','automotive_design',1994,#27);
#4=PRODUCT_CATEGORY_RELATIONSHIP('NONE','NONE',#28,#29);
#5=SHAPE_DEFINITION_REPRESENTATION(#30,#31);
#6= (GEOMETRIC_REPRESENTATION_CONTEXT(3)GLOBAL_UNCERTAINTY_ASSIGNED_CONTEXT((#34))GLOBAL_UNIT_ASSIGNED_CONTEXT((#36,#37,#38))REPRESENTATION_CONTEXT('NONE','WORKSPACE'));
#10=STYLED_ITEM('',(#40),#41);
#11=STYLED_ITEM('',(#42),#43);
#12=STYLED_ITEM('',(#44),#45);
#13=STYLED_ITEM('',(#46),#47);
#14=STYLED_ITEM('',(#48),#49);
#15=STYLED_ITEM('',(#50),#51);
#16=STYLED_ITEM('',(#52),#53);
#17=STYLED_ITEM('',(#54),#55);
#18=STYLED_ITEM('',(#56),#57);
#19=STYLED_ITEM('',(#58),#59);
#20=STYLED_ITEM('',(#60),#61);
#21=STYLED_ITEM('',(#62),#63);
#22=STYLED_ITEM('',(#64),#65);
#23=STYLED_ITEM('',(#66),#67);
#24=STYLED_ITEM('',(#68),#69);
#25=STYLED_ITEM('',(#70),#71);
#26=STYLED_ITEM('',(#72),#73);
#27=APPLICATION_CONTEXT(' ');
#28=PRODUCT_CATEGORY('part','NONE');
#29=PRODUCT_RELATED_PRODUCT_CATEGORY('detail',' ',(#74));
#30=PRODUCT_DEFINITION_SHAPE('NONE','NONE',#75);
#31=ADVANCED_BREP_SHAPE_REPRESENTATION('2020_01_13__14-16-30-025',(#73,#76),#6);
#34=UNCERTAINTY_MEASURE_WITH_UNIT(LENGTH_MEASURE(1.0E-006),#36,'','');
#36= (CONVERSION_BASED_UNIT('MILLIMETRE',#79)LENGTH_UNIT()NAMED_UNIT(#82));
#37= (NAMED_UNIT(#84)PLANE_ANGLE_UNIT()SI_UNIT($,.RADIAN.));
#38= (NAMED_UNIT(#84)SOLID_ANGLE_UNIT()SI_UNIT($,.STERADIAN.));
#40=PRESENTATION_STYLE_ASSIGNMENT((#90));
#41=ADVANCED_FACE('',(#91),#92,.T.);
#42=PRESENTATION_STYLE_ASSIGNMENT((#93));
#43=ADVANCED_FACE('',(#94),#95,.T.);
#44=PRESENTATION_STYLE_ASSIGNMENT((#96));
#45=ADVANCED_FACE('',(#97),#98,.T.);
#46=PRESENTATION_STYLE_ASSIGNMENT((#99));
#47=ADVANCED_FACE('',(#100),#101,.T.);
#48=PRESENTATION_STYLE_ASSIGNMENT((#102));
#49=ADVANCED_FACE('',(#103),#104,.T.);
#50=PRESENTATION_STYLE_ASSIGNMENT((#105));
#51=ADVANCED_FACE('',(#106),#107,.T.);
#52=PRESENTATION_STYLE_ASSIGNMENT((#108));
#53=ADVANCED_FACE('',(#109),#110,.T.);
#54=PRESENTATION_STYLE_ASSIGNMENT((#111));
#55=ADVANCED_FACE('',(#112,#113),#114,.T.);
#56=PRESENTATION_STYLE_ASSIGNMENT((#115));
#57=ADVANCED_FACE('',(#116),#117,.T.);
#58=PRESENTATION_STYLE_ASSIGNMENT((#118));
#59=ADVANCED_FACE('',(#119),#120,.T.);
#60=PRESENTATION_STYLE_ASSIGNMENT((#121));
#61=ADVANCED_FACE('',(#122),#123,.T.);
#62=PRESENTATION_STYLE_ASSIGNMENT((#124));
#63=ADVANCED_FACE('',(#125),#126,.T.);
#64=PRESENTATION_STYLE_ASSIGNMENT((#127));
#65=ADVANCED_FACE('',(#128),#129,.T.);
#66=PRESENTATION_STYLE_ASSIGNMENT((#130));
#67=ADVANCED_FACE('',(#131),#132,.T.);
#68=PRESENTATION_STYLE_ASSIGNMENT((#133));
#69=ADVANCED_FACE('',(#134),#135,.T.);
#70=PRESENTATION_STYLE_ASSIGNMENT((#136));
#71=ADVANCED_FACE('',(#137,#138),#139,.T.);
#72=PRESENTATION_STYLE_ASSIGNMENT((#140));
#73=MANIFOLD_SOLID_BREP('2020_01_13__14-16-30-025',#141);
#74=PRODUCT('2020_01_13__14-16-30-025','','PART--DESC',(#142));
#75=PRODUCT_DEFINITION('','NONE',#143,#2);
#76=AXIS2_PLACEMENT_3D('',#144,#145,#146);
#79=LENGTH_MEASURE_WITH_UNIT(LENGTH_MEASURE(1.0),#147);
#82=DIMENSIONAL_EXPONENTS(1.0,0.0,0.0,0.0,0.0,0.0,0.0);
#84=DIMENSIONAL_EXPONENTS(0.0,0.0,0.0,0.0,0.0,0.0,0.0);
#90=SURFACE_STYLE_USAGE(.BOTH.,#148);
#91=FACE_OUTER_BOUND('',#149,.T.);
#92=CYLINDRICAL_SURFACE('',#150,9.77995818368919);
#93=SURFACE_STYLE_USAGE(.BOTH.,#151);
#94=FACE_OUTER_BOUND('',#152,.T.);
#95=CONICAL_SURFACE('',#153,7.77995818369498,0.785398162499999);
#96=SURFACE_STYLE_USAGE(.BOTH.,#154);
#97=FACE_OUTER_BOUND('',#155,.T.);
#98=CONICAL_SURFACE('',#156,5.87011699440302,0.785398162500013);
#99=SURFACE_STYLE_USAGE(.BOTH.,#157);
#100=FACE_OUTER_BOUND('',#158,.T.);
#101=CYLINDRICAL_SURFACE('',#159,6.42011699440304);
#102=SURFACE_STYLE_USAGE(.BOTH.,#160);
#103=FACE_OUTER_BOUND('',#161,.T.);
#104=CONICAL_SURFACE('',#162,5.87011699440303,0.785398162500008);
#105=SURFACE_STYLE_USAGE(.BOTH.,#163);
#106=FACE_OUTER_BOUND('',#164,.T.);
#107=CYLINDRICAL_SURFACE('',#165,4.47988300559692);
#108=SURFACE_STYLE_USAGE(.BOTH.,#166);
#109=FACE_OUTER_BOUND('',#167,.T.);
#110=CYLINDRICAL_SURFACE('',#168,4.47988300559692);
#111=SURFACE_STYLE_USAGE(.BOTH.,#169);
#112=FACE_OUTER_BOUND('',#170,.T.);
#113=FACE_BOUND('',#171,.T.);
#114=PLANE('',#172);
#115=SURFACE_STYLE_USAGE(.BOTH.,#173);
#116=FACE_OUTER_BOUND('',#174,.T.);
#117=CONICAL_SURFACE('',#175,5.87011699440303,0.785398162500008);
#118=SURFACE_STYLE_USAGE(.BOTH.,#176);
#119=FACE_OUTER_BOUND('',#177,.T.);
#120=CYLINDRICAL_SURFACE('',#178,6.42011699440304);
#121=SURFACE_STYLE_USAGE(.BOTH.,#179);
#122=FACE_OUTER_BOUND('',#180,.T.);
#123=CONICAL_SURFACE('',#181,5.87011699440302,0.785398162500013);
#124=SURFACE_STYLE_USAGE(.BOTH.,#182);
#125=FACE_OUTER_BOUND('',#183,.T.);
#126=PLANE('',#184);
#127=SURFACE_STYLE_USAGE(.BOTH.,#185);
#128=FACE_OUTER_BOUND('',#186,.T.);
#129=PLANE('',#187);
#130=SURFACE_STYLE_USAGE(.BOTH.,#188);
#131=FACE_OUTER_BOUND('',#189,.T.);
#132=CONICAL_SURFACE('',#190,7.77995818369498,0.785398162499999);
#133=SURFACE_STYLE_USAGE(.BOTH.,#191);
#134=FACE_OUTER_BOUND('',#192,.T.);
#135=CYLINDRICAL_SURFACE('',#193,9.77995818368919);
#136=SURFACE_STYLE_USAGE(.BOTH.,#194);
#137=FACE_OUTER_BOUND('',#195,.T.);
#138=FACE_BOUND('',#196,.T.);
#139=PLANE('',#197);
#140=SURFACE_STYLE_USAGE(.BOTH.,#198);
#141=CLOSED_SHELL('',(#41,#43,#45,#47,#49,#51,#53,#55,#57,#59,#61,#63,#65,#67,#69,#71));
#142=PRODUCT_CONTEXT('',#27,'mechanical');
#143=PRODUCT_DEFINITION_FORMATION_WITH_SPECIFIED_SOURCE(' ','NONE',#74,.NOT_KNOWN.);
#144=CARTESIAN_POINT('',(0.0,0.0,0.0));
#145=DIRECTION('',(0.0,0.0,1.0));
#146=DIRECTION('',(1.0,0.0,0.0));
#147= (NAMED_UNIT(#82)LENGTH_UNIT()SI_UNIT(.MILLI.,.METRE.));
#148=SURFACE_SIDE_STYLE('',(#200));
#149=EDGE_LOOP('',(#201,#202,#203,#204));
#150=AXIS2_PLACEMENT_3D('',#205,#206,#207);
#151=SURFACE_SIDE_STYLE('',(#208));
#152=EDGE_LOOP('',(#209,#210,#211,#212));
#153=AXIS2_PLACEMENT_3D('',#213,#214,#215);
#154=SURFACE_SIDE_STYLE('',(#216));
#155=EDGE_LOOP('',(#217,#218,#219,#220));
#156=AXIS2_PLACEMENT_3D('',#221,#222,#223);
#157=SURFACE_SIDE_STYLE('',(#224));
#158=EDGE_LOOP('',(#225,#226,#227,#228));
#159=AXIS2_PLACEMENT_3D('',#229,#230,#231);
#160=SURFACE_SIDE_STYLE('',(#232));
#161=EDGE_LOOP('',(#233,#234,#235,#236));
#162=AXIS2_PLACEMENT_3D('',#237,#238,#239);
#163=SURFACE_SIDE_STYLE('',(#240));
#164=EDGE_LOOP('',(#241,#242,#243,#244));
#165=AXIS2_PLACEMENT_3D('',#245,#246,#247);
#166=SURFACE_SIDE_STYLE('',(#248));
#167=EDGE_LOOP('',(#249,#250,#251,#252));
#168=AXIS2_PLACEMENT_3D('',#253,#254,#255);
#169=SURFACE_SIDE_STYLE('',(#256));
#170=EDGE_LOOP('',(#257,#258));
#171=EDGE_LOOP('',(#259,#260));
#172=AXIS2_PLACEMENT_3D('',#261,#262,#263);
#173=SURFACE_SIDE_STYLE('',(#264));
#174=EDGE_LOOP('',(#265,#266,#267,#268));
#175=AXIS2_PLACEMENT_3D('',#269,#270,#271);
#176=SURFACE_SIDE_STYLE('',(#272));
#177=EDGE_LOOP('',(#273,#274,#275,#276));
#178=AXIS2_PLACEMENT_3D('',#277,#278,#279);
#179=SURFACE_SIDE_STYLE('',(#280));
#180=EDGE_LOOP('',(#281,#282,#283,#284));
#181=AXIS2_PLACEMENT_3D('',#285,#286,#287);
#182=SURFACE_SIDE_STYLE('',(#288));
#183=EDGE_LOOP('',(#289,#290));
#184=AXIS2_PLACEMENT_3D('',#291,#292,#293);
#185=SURFACE_SIDE_STYLE('',(#294));
#186=EDGE_LOOP('',(#295,#296));
#187=AXIS2_PLACEMENT_3D('',#297,#298,#299);
#188=SURFACE_SIDE_STYLE('',(#300));
#189=EDGE_LOOP('',(#301,#302,#303,#304));
#190=AXIS2_PLACEMENT_3D('',#305,#306,#307);
#191=SURFACE_SIDE_STYLE('',(#308));
#192=EDGE_LOOP('',(#309,#310,#311,#312));
#193=AXIS2_PLACEMENT_3D('',#313,#314,#315);
#194=SURFACE_SIDE_STYLE('',(#316));
#195=EDGE_LOOP('',(#317,#318));
#196=EDGE_LOOP('',(#319,#320));
#197=AXIS2_PLACEMENT_3D('',#321,#322,#323);
#198=SURFACE_SIDE_STYLE('',(#324));
#200=SURFACE_STYLE_FILL_AREA(#325);
#201=ORIENTED_EDGE('',*,*,#326,.F.);
#202=ORIENTED_EDGE('',*,*,#327,.T.);
#203=ORIENTED_EDGE('',*,*,#328,.F.);
#204=ORIENTED_EDGE('',*,*,#329,.F.);
#205=CARTESIAN_POINT('',(0.0,0.0,-6.85000000000308));
#206=DIRECTION('',(0.0,0.0,-1.0));
#207=DIRECTION('',(0.0,-1.0,0.0));
#208=SURFACE_STYLE_FILL_AREA(#330);
#209=ORIENTED_EDGE('',*,*,#331,.F.);
#210=ORIENTED_EDGE('',*,*,#332,.T.);
#211=ORIENTED_EDGE('',*,*,#333,.F.);
#212=ORIENTED_EDGE('',*,*,#327,.F.);
#213=CARTESIAN_POINT('',(0.0,0.0,-9.70000000000038));
#214=DIRECTION('',(-0.0,-0.0,1.0));
#215=DIRECTION('',(0.0,-1.0,0.0));
#216=SURFACE_STYLE_FILL_AREA(#334);
#217=ORIENTED_EDGE('',*,*,#335,.F.);
#218=ORIENTED_EDGE('',*,*,#336,.F.);
#219=ORIENTED_EDGE('',*,*,#337,.F.);
#220=ORIENTED_EDGE('',*,*,#338,.T.);
#221=CARTESIAN_POINT('',(0.0,-3.552714E-015,23.45));
#222=DIRECTION('',(0.0,-0.0,-1.0));
#223=DIRECTION('',(0.0,-1.0,0.0));
#224=SURFACE_STYLE_FILL_AREA(#339);
#225=ORIENTED_EDGE('',*,*,#340,.F.);
#226=ORIENTED_EDGE('',*,*,#341,.T.);
#227=ORIENTED_EDGE('',*,*,#342,.F.);
#228=ORIENTED_EDGE('',*,*,#343,.F.);
#229=CARTESIAN_POINT('',(0.0,-3.552714E-015,13.0));
#230=DIRECTION('',(0.0,0.0,-1.0));
#231=DIRECTION('',(0.0,-1.0,0.0));
#232=SURFACE_STYLE_FILL_AREA(#344);
#233=ORIENTED_EDGE('',*,*,#345,.F.);
#234=ORIENTED_EDGE('',*,*,#346,.T.);
#235=ORIENTED_EDGE('',*,*,#347,.F.);
#236=ORIENTED_EDGE('',*,*,#341,.F.);
#237=CARTESIAN_POINT('',(0.0,0.0,2.54999999999997));
#238=DIRECTION('',(-0.0,-0.0,1.0));
#239=DIRECTION('',(0.0,-1.0,0.0));
#240=SURFACE_STYLE_FILL_AREA(#348);
#241=ORIENTED_EDGE('',*,*,#349,.F.);
#242=ORIENTED_EDGE('',*,*,#350,.T.);
#243=ORIENTED_EDGE('',*,*,#351,.F.);
#244=ORIENTED_EDGE('',*,*,#352,.F.);
#245=CARTESIAN_POINT('',(0.0,0.0,-2.00000000000002));
#246=DIRECTION('',(0.0,0.0,-1.0));
#247=DIRECTION('',(0.0,-1.0,0.0));
#248=SURFACE_STYLE_FILL_AREA(#353);
#249=ORIENTED_EDGE('',*,*,#349,.T.);
#250=ORIENTED_EDGE('',*,*,#354,.F.);
#251=ORIENTED_EDGE('',*,*,#351,.T.);
#252=ORIENTED_EDGE('',*,*,#355,.T.);
#253=CARTESIAN_POINT('',(0.0,0.0,-2.00000000000002));
#254=DIRECTION('',(0.0,0.0,-1.0));
#255=DIRECTION('',(0.0,-1.0,0.0));
#256=SURFACE_STYLE_FILL_AREA(#356);
#257=ORIENTED_EDGE('',*,*,#346,.F.);
#258=ORIENTED_EDGE('',*,*,#357,.F.);
#259=ORIENTED_EDGE('',*,*,#352,.T.);
#260=ORIENTED_EDGE('',*,*,#354,.T.);
#261=CARTESIAN_POINT('',(0.0,-4.89999999999997,1.99999999999997));
#262=DIRECTION('',(0.0,0.0,-1.0));
#263=DIRECTION('',(0.0,-1.0,0.0));
#264=SURFACE_STYLE_FILL_AREA(#358);
#265=ORIENTED_EDGE('',*,*,#345,.T.);
#266=ORIENTED_EDGE('',*,*,#359,.F.);
#267=ORIENTED_EDGE('',*,*,#347,.T.);
#268=ORIENTED_EDGE('',*,*,#357,.T.);
#269=CARTESIAN_POINT('',(0.0,0.0,2.54999999999997));
#270=DIRECTION('',(-0.0,-0.0,1.0));
#271=DIRECTION('',(0.0,-1.0,0.0));
#272=SURFACE_STYLE_FILL_AREA(#360);
#273=ORIENTED_EDGE('',*,*,#340,.T.);
#274=ORIENTED_EDGE('',*,*,#338,.F.);
#275=ORIENTED_EDGE('',*,*,#342,.T.);
#276=ORIENTED_EDGE('',*,*,#359,.T.);
#277=CARTESIAN_POINT('',(0.0,-3.552714E-015,13.0));
#278=DIRECTION('',(0.0,0.0,-1.0));
#279=DIRECTION('',(0.0,-1.0,0.0));
#280=SURFACE_STYLE_FILL_AREA(#361);
#281=ORIENTED_EDGE('',*,*,#335,.T.);
#282=ORIENTED_EDGE('',*,*,#343,.T.);
#283=ORIENTED_EDGE('',*,*,#337,.T.);
#284=ORIENTED_EDGE('',*,*,#362,.F.);
#285=CARTESIAN_POINT('',(0.0,-3.552714E-015,23.45));
#286=DIRECTION('',(0.0,-0.0,-1.0));
#287=DIRECTION('',(0.0,-1.0,0.0));
#288=SURFACE_STYLE_FILL_AREA(#363);
#289=ORIENTED_EDGE('',*,*,#362,.T.);
#290=ORIENTED_EDGE('',*,*,#336,.T.);
#291=CARTESIAN_POINT('',(0.0,-2.66005849720151,24.0));
#292=DIRECTION('',(0.0,0.0,1.0));
#293=DIRECTION('',(1.0,-0.0,0.0));
#294=SURFACE_STYLE_FILL_AREA(#364);
#295=ORIENTED_EDGE('',*,*,#332,.F.);
#296=ORIENTED_EDGE('',*,*,#365,.F.);
#297=CARTESIAN_POINT('',(0.0,-2.88997909185038,-11.6999999999946));
#298=DIRECTION('',(0.0,0.0,-1.0));
#299=DIRECTION('',(0.0,-1.0,0.0));
#300=SURFACE_STYLE_FILL_AREA(#366);
#301=ORIENTED_EDGE('',*,*,#331,.T.);
#302=ORIENTED_EDGE('',*,*,#367,.F.);
#303=ORIENTED_EDGE('',*,*,#333,.T.);
#304=ORIENTED_EDGE('',*,*,#365,.T.);
#305=CARTESIAN_POINT('',(0.0,0.0,-9.70000000000038));
#306=DIRECTION('',(-0.0,-0.0,1.0));
#307=DIRECTION('',(0.0,-1.0,0.0));
#308=SURFACE_STYLE_FILL_AREA(#368);
#309=ORIENTED_EDGE('',*,*,#326,.T.);
#310=ORIENTED_EDGE('',*,*,#369,.F.);
#311=ORIENTED_EDGE('',*,*,#328,.T.);
#312=ORIENTED_EDGE('',*,*,#367,.T.);
#313=CARTESIAN_POINT('',(0.0,0.0,-6.85000000000308));
#314=DIRECTION('',(0.0,0.0,-1.0));
#315=DIRECTION('',(0.0,-1.0,0.0));
#316=SURFACE_STYLE_FILL_AREA(#370);
#317=ORIENTED_EDGE('',*,*,#329,.T.);
#318=ORIENTED_EDGE('',*,*,#369,.T.);
#319=ORIENTED_EDGE('',*,*,#350,.F.);
#320=ORIENTED_EDGE('',*,*,#355,.F.);
#321=CARTESIAN_POINT('',(0.0,-7.12992059464306,-6.00000000000002));
#322=DIRECTION('',(0.0,0.0,1.0));
#323=DIRECTION('',(1.0,-0.0,0.0));
#324=SURFACE_STYLE_FILL_AREA(#371);
#325=FILL_AREA_STYLE('',(#372));
#326=EDGE_CURVE('',#373,#374,#375,.T.);
#327=EDGE_CURVE('',#373,#376,#377,.T.);
#328=EDGE_CURVE('',#378,#376,#379,.T.);
#329=EDGE_CURVE('',#374,#378,#380,.T.);
#330=FILL_AREA_STYLE('',(#381));
#331=EDGE_CURVE('',#382,#373,#383,.T.);
#332=EDGE_CURVE('',#382,#384,#385,.T.);
#333=EDGE_CURVE('',#376,#384,#386,.T.);
#334=FILL_AREA_STYLE('',(#387));
#335=EDGE_CURVE('',#388,#389,#390,.T.);
#336=EDGE_CURVE('',#391,#388,#392,.T.);
#337=EDGE_CURVE('',#393,#391,#394,.T.);
#338=EDGE_CURVE('',#393,#389,#395,.T.);
#339=FILL_AREA_STYLE('',(#396));
#340=EDGE_CURVE('',#397,#389,#398,.T.);
#341=EDGE_CURVE('',#397,#399,#400,.T.);
#342=EDGE_CURVE('',#393,#399,#401,.T.);
#343=EDGE_CURVE('',#389,#393,#402,.T.);
#344=FILL_AREA_STYLE('',(#403));
#345=EDGE_CURVE('',#404,#397,#405,.T.);
#346=EDGE_CURVE('',#404,#406,#407,.T.);
#347=EDGE_CURVE('',#399,#406,#408,.T.);
#348=FILL_AREA_STYLE('',(#409));
#349=EDGE_CURVE('',#410,#411,#412,.T.);
#350=EDGE_CURVE('',#410,#413,#414,.T.);
#351=EDGE_CURVE('',#415,#413,#416,.T.);
#352=EDGE_CURVE('',#411,#415,#417,.T.);
#353=FILL_AREA_STYLE('',(#418));
#354=EDGE_CURVE('',#415,#411,#419,.T.);
#355=EDGE_CURVE('',#413,#410,#420,.T.);
#356=FILL_AREA_STYLE('',(#421));
#357=EDGE_CURVE('',#406,#404,#422,.T.);
#358=FILL_AREA_STYLE('',(#423));
#359=EDGE_CURVE('',#399,#397,#424,.T.);
#360=FILL_AREA_STYLE('',(#425));
#361=FILL_AREA_STYLE('',(#426));
#362=EDGE_CURVE('',#388,#391,#427,.T.);
#363=FILL_AREA_STYLE('',(#428));
#364=FILL_AREA_STYLE('',(#429));
#365=EDGE_CURVE('',#384,#382,#430,.T.);
#366=FILL_AREA_STYLE('',(#431));
#367=EDGE_CURVE('',#376,#373,#432,.T.);
#368=FILL_AREA_STYLE('',(#433));
#369=EDGE_CURVE('',#378,#374,#434,.T.);
#370=FILL_AREA_STYLE('',(#435));
#371=FILL_AREA_STYLE('',(#436));
#372=FILL_AREA_STYLE_COLOUR('',#437);
#373=VERTEX_POINT('',#438);
#374=VERTEX_POINT('',#439);
#375=LINE('',#440,#441);
#376=VERTEX_POINT('',#442);
#377=CIRCLE('',#443,9.77995818368919);
#378=VERTEX_POINT('',#444);
#379=LINE('',#445,#446);
#380=CIRCLE('',#447,9.77995818368919);
#381=FILL_AREA_STYLE_COLOUR('',#448);
#382=VERTEX_POINT('',#449);
#383=LINE('',#450,#451);
#384=VERTEX_POINT('',#452);
#385=CIRCLE('',#453,5.77995818370077);
#386=LINE('',#454,#455);
#387=FILL_AREA_STYLE_COLOUR('',#456);
#388=VERTEX_POINT('',#457);
#389=VERTEX_POINT('',#458);
#390=LINE('',#459,#460);
#391=VERTEX_POINT('',#461);
#392=CIRCLE('',#462,5.32011699440301);
#393=VERTEX_POINT('',#463);
#394=LINE('',#464,#465);
#395=CIRCLE('',#466,6.42011699440304);
#396=FILL_AREA_STYLE_COLOUR('',#467);
#397=VERTEX_POINT('',#468);
#398=LINE('',#469,#470);
#399=VERTEX_POINT('',#471);
#400=CIRCLE('',#472,6.42011699440304);
#401=LINE('',#473,#474);
#402=CIRCLE('',#475,6.42011699440304);
#403=FILL_AREA_STYLE_COLOUR('',#476);
#404=VERTEX_POINT('',#477);
#405=LINE('',#478,#479);
#406=VERTEX_POINT('',#480);
#407=CIRCLE('',#481,5.32011699440302);
#408=LINE('',#482,#483);
#409=FILL_AREA_STYLE_COLOUR('',#484);
#410=VERTEX_POINT('',#485);
#411=VERTEX_POINT('',#486);
#412=LINE('',#487,#488);
#413=VERTEX_POINT('',#489);
#414=CIRCLE('',#490,4.47988300559692);
#415=VERTEX_POINT('',#491);
#416=LINE('',#492,#493);
#417=CIRCLE('',#494,4.47988300559692);
#418=FILL_AREA_STYLE_COLOUR('',#495);
#419=CIRCLE('',#496,4.47988300559692);
#420=CIRCLE('',#497,4.47988300559692);
#421=FILL_AREA_STYLE_COLOUR('',#498);
#422=CIRCLE('',#499,5.32011699440302);
#423=FILL_AREA_STYLE_COLOUR('',#500);
#424=CIRCLE('',#501,6.42011699440304);
#425=FILL_AREA_STYLE_COLOUR('',#502);
#426=FILL_AREA_STYLE_COLOUR('',#503);
#427=CIRCLE('',#504,5.32011699440301);
#428=FILL_AREA_STYLE_COLOUR('',#505);
#429=FILL_AREA_STYLE_COLOUR('',#506);
#430=CIRCLE('',#507,5.77995818370077);
#431=FILL_AREA_STYLE_COLOUR('',#508);
#432=CIRCLE('',#509,9.77995818368919);
#433=FILL_AREA_STYLE_COLOUR('',#510);
#434=CIRCLE('',#511,9.77995818368919);
#435=FILL_AREA_STYLE_COLOUR('',#512);
#436=FILL_AREA_STYLE_COLOUR('',#513);
#437=COLOUR_RGB('',0.752941191196442,0.752941191196442,0.752941191196442);
#438=CARTESIAN_POINT('',(0.0,-9.77995818368919,-7.70000000000618));
#439=CARTESIAN_POINT('',(0.0,-9.77995818368919,-6.0));
#440=CARTESIAN_POINT('',(1.19769944854499E-015,-9.77995818368919,-6.85000000000308));
#441=VECTOR('',#514,1.0);
#442=CARTESIAN_POINT('',(-1.19769944854499E-015,9.77995818368919,-7.70000000000617));
#443=AXIS2_PLACEMENT_3D('',#515,#516,#517);
#444=CARTESIAN_POINT('',(-1.19769944854499E-015,9.77995818368919,-6.0));
#445=CARTESIAN_POINT('',(-1.19769944854499E-015,9.77995818368919,-6.85000000000308));
#446=VECTOR('',#518,1.0);
#447=AXIS2_PLACEMENT_3D('',#519,#520,#521);
#448=COLOUR_RGB('',0.752941191196442,0.752941191196442,0.752941191196442);
#449=CARTESIAN_POINT('',(0.0,-5.77995818370077,-11.6999999999946));
#450=CARTESIAN_POINT('',(9.52770088716231E-016,-7.77995818369498,-9.70000000000038));
#451=VECTOR('',#522,1.0);
#452=CARTESIAN_POINT('',(-7.0784072888747E-016,5.77995818370077,-11.6999999999946));
#453=AXIS2_PLACEMENT_3D('',#523,#524,#525);
#454=CARTESIAN_POINT('',(-9.52770088716231E-016,7.77995818369498,-9.70000000000038));
#455=VECTOR('',#526,1.0);
#456=COLOUR_RGB('',0.752941191196442,0.752941191196442,0.752941191196442);
#457=CARTESIAN_POINT('',(0.0,-5.32011699440302,24.0));
#458=CARTESIAN_POINT('',(0.0,-6.42011699440304,22.9));
#459=CARTESIAN_POINT('',(-7.18881998781614E-016,-5.87011699440303,23.45));
#460=VECTOR('',#527,1.0);
#461=CARTESIAN_POINT('',(6.51526424828509E-016,5.32011699440301,24.0));
#462=AXIS2_PLACEMENT_3D('',#528,#529,#530);
#463=CARTESIAN_POINT('',(-7.8623757273472E-016,6.42011699440303,22.9));
#464=CARTESIAN_POINT('',(7.18881998781614E-016,5.87011699440302,23.45));
#465=VECTOR('',#531,1.0);
#466=AXIS2_PLACEMENT_3D('',#532,#533,#534);
#467=COLOUR_RGB('',0.752941191196442,0.752941191196442,0.752941191196442);
#468=CARTESIAN_POINT('',(0.0,-6.42011699440304,3.09999999999997));
#469=CARTESIAN_POINT('',(7.8623757273472E-016,-6.42011699440304,13.0));
#470=VECTOR('',#535,1.0);
#471=CARTESIAN_POINT('',(-7.8623757273472E-016,6.42011699440303,3.09999999999997));
#472=AXIS2_PLACEMENT_3D('',#536,#537,#538);
#473=CARTESIAN_POINT('',(-7.8623757273472E-016,6.42011699440303,13.0));
#474=VECTOR('',#539,1.0);
#475=AXIS2_PLACEMENT_3D('',#540,#541,#542);
#476=COLOUR_RGB('',0.752941191196442,0.752941191196442,0.752941191196442);
#477=CARTESIAN_POINT('',(0.0,-5.32011699440302,1.99999999999997));
#478=CARTESIAN_POINT('',(7.18881998781615E-016,-5.87011699440303,2.54999999999997));
#479=VECTOR('',#543,1.0);
#480=CARTESIAN_POINT('',(-6.5152642482851E-016,5.32011699440302,1.99999999999998));
#481=AXIS2_PLACEMENT_3D('',#544,#545,#546);
#482=CARTESIAN_POINT('',(-7.18881998781615E-016,5.87011699440303,2.54999999999997));
#483=VECTOR('',#547,1.0);
#484=COLOUR_RGB('',0.752941191196442,0.752941191196442,0.752941191196442);
#485=CARTESIAN_POINT('',(0.0,-4.47988300559692,-6.00000000000003));
#486=CARTESIAN_POINT('',(0.0,-4.47988300559692,1.99999999999997));
#487=CARTESIAN_POINT('',(5.48627438335889E-016,-4.47988300559692,-2.00000000000002));
#488=VECTOR('',#548,1.0);
#489=CARTESIAN_POINT('',(-5.48627438335889E-016,4.47988300559692,-6.00000000000003));
#490=AXIS2_PLACEMENT_3D('',#549,#550,#551);
#491=CARTESIAN_POINT('',(-5.48627438335889E-016,4.47988300559692,1.99999999999997));
#492=CARTESIAN_POINT('',(-5.48627438335889E-016,4.47988300559692,-2.00000000000002));
#493=VECTOR('',#552,1.0);
#494=AXIS2_PLACEMENT_3D('',#553,#554,#555);
#495=COLOUR_RGB('',0.752941191196442,0.752941191196442,0.752941191196442);
#496=AXIS2_PLACEMENT_3D('',#556,#557,#558);
#497=AXIS2_PLACEMENT_3D('',#559,#560,#561);
#498=COLOUR_RGB('',0.752941191196442,0.752941191196442,0.752941191196442);
#499=AXIS2_PLACEMENT_3D('',#562,#563,#564);
#500=COLOUR_RGB('',0.752941191196442,0.752941191196442,0.752941191196442);
#501=AXIS2_PLACEMENT_3D('',#565,#566,#567);
#502=COLOUR_RGB('',0.752941191196442,0.752941191196442,0.752941191196442);
#503=COLOUR_RGB('',0.752941191196442,0.752941191196442,0.752941191196442);
#504=AXIS2_PLACEMENT_3D('',#568,#569,#570);
#505=COLOUR_RGB('',0.752941191196442,0.752941191196442,0.752941191196442);
#506=COLOUR_RGB('',0.752941191196442,0.752941191196442,0.752941191196442);
#507=AXIS2_PLACEMENT_3D('',#571,#572,#573);
#508=COLOUR_RGB('',0.752941191196442,0.752941191196442,0.752941191196442);
#509=AXIS2_PLACEMENT_3D('',#574,#575,#576);
#510=COLOUR_RGB('',0.752941191196442,0.752941191196442,0.752941191196442);
#511=AXIS2_PLACEMENT_3D('',#577,#578,#579);
#512=COLOUR_RGB('',0.752941191196442,0.752941191196442,0.752941191196442);
#513=COLOUR_RGB('',0.752941012382507,0.752941012382507,0.752941012382507);
#514=DIRECTION('',(-0.0,-0.0,1.0));
#515=CARTESIAN_POINT('',(0.0,0.0,-7.70000000000617));
#516=DIRECTION('',(0.0,0.0,1.0));
#517=DIRECTION('',(0.0,-1.0,0.0));
#518=DIRECTION('',(0.0,0.0,-1.0));
#519=CARTESIAN_POINT('',(0.0,0.0,-6.0));
#520=DIRECTION('',(0.0,0.0,1.0));
#521=DIRECTION('',(0.0,-1.0,0.0));
#522=DIRECTION('',(8.65956055458342E-017,-0.707106780551955,0.70710678182114));
#523=CARTESIAN_POINT('',(0.0,0.0,-11.6999999999946));
#524=DIRECTION('',(0.0,0.0,1.0));
#525=DIRECTION('',(0.0,-1.0,0.0));
#526=DIRECTION('',(8.65956055458342E-017,-0.707106780551955,-0.70710678182114));
#527=DIRECTION('',(-8.65956055458353E-017,-0.707106780551965,-0.70710678182113));
#528=CARTESIAN_POINT('',(0.0,-3.552714E-015,24.0));
#529=DIRECTION('',(0.0,0.0,1.0));
#530=DIRECTION('',(0.0,-1.0,0.0));
#531=DIRECTION('',(-8.65956055458353E-017,-0.707106780551965,0.70710678182113));
#532=CARTESIAN_POINT('',(0.0,-3.552714E-015,22.9));
#533=DIRECTION('',(0.0,0.0,1.0));
#534=DIRECTION('',(0.0,-1.0,0.0));
#535=DIRECTION('',(-0.0,-0.0,1.0));
#536=CARTESIAN_POINT('',(0.0,0.0,3.09999999999997));
#537=DIRECTION('',(0.0,0.0,1.0));
#538=DIRECTION('',(0.0,-1.0,0.0));
#539=DIRECTION('',(0.0,0.0,-1.0));
#540=CARTESIAN_POINT('',(0.0,-3.552714E-015,22.9));
#541=DIRECTION('',(0.0,0.0,1.0));
#542=DIRECTION('',(0.0,-1.0,0.0));
#543=DIRECTION('',(8.65956055458349E-017,-0.707106780551961,0.707106781821134));
#544=CARTESIAN_POINT('',(0.0,0.0,1.99999999999997));
#545=DIRECTION('',(0.0,0.0,1.0));
#546=DIRECTION('',(0.0,-1.0,0.0));
#547=DIRECTION('',(8.65956055458349E-017,-0.707106780551961,-0.707106781821134));
#548=DIRECTION('',(-0.0,-0.0,1.0));
#549=CARTESIAN_POINT('',(0.0,0.0,-6.00000000000003));
#550=DIRECTION('',(0.0,0.0,1.0));
#551=DIRECTION('',(0.0,-1.0,0.0));
#552=DIRECTION('',(0.0,0.0,-1.0));
#553=CARTESIAN_POINT('',(0.0,0.0,1.99999999999997));
#554=DIRECTION('',(0.0,0.0,1.0));
#555=DIRECTION('',(0.0,-1.0,0.0));
#556=CARTESIAN_POINT('',(0.0,0.0,1.99999999999997));
#557=DIRECTION('',(0.0,0.0,1.0));
#558=DIRECTION('',(0.0,-1.0,0.0));
#559=CARTESIAN_POINT('',(0.0,0.0,-6.00000000000003));
#560=DIRECTION('',(0.0,0.0,1.0));
#561=DIRECTION('',(0.0,-1.0,0.0));
#562=CARTESIAN_POINT('',(0.0,0.0,1.99999999999997));
#563=DIRECTION('',(0.0,0.0,1.0));
#564=DIRECTION('',(0.0,-1.0,0.0));
#565=CARTESIAN_POINT('',(0.0,0.0,3.09999999999997));
#566=DIRECTION('',(0.0,0.0,1.0));
#567=DIRECTION('',(0.0,-1.0,0.0));
#568=CARTESIAN_POINT('',(0.0,-3.552714E-015,24.0));
#569=DIRECTION('',(0.0,0.0,1.0));
#570=DIRECTION('',(0.0,-1.0,0.0));
#571=CARTESIAN_POINT('',(0.0,0.0,-11.6999999999946));
#572=DIRECTION('',(0.0,0.0,1.0));
#573=DIRECTION('',(0.0,-1.0,0.0));
#574=CARTESIAN_POINT('',(0.0,0.0,-7.70000000000617));
#575=DIRECTION('',(0.0,0.0,1.0));
#576=DIRECTION('',(0.0,-1.0,0.0));
#577=CARTESIAN_POINT('',(0.0,0.0,-6.0));
#578=DIRECTION('',(0.0,0.0,1.0));
#579=DIRECTION('',(0.0,-1.0,0.0));
ENDSEC;
END-ISO-10303-21;
