ISO-10303-21;
HEADER;
FILE_DESCRIPTION(('STEP AP214'),'1');
FILE_NAME('cctmp_47F2B888-A637-429C-A6CC-535A77CC3953_2020_1_13_11_27_51_973..stp','2020-01-13T10:27:52',('Bosch Rexroth AG'),('CADClick - www.CADClick.com'),'Spatial InterOp 3D',' ','unknown authorization - (Healing Option Enabled)');
FILE_SCHEMA(('AUTOMOTIVE_DESIGN'));
ENDSEC;
DATA;
#1=MECHANICAL_DESIGN_GEOMETRIC_PRESENTATION_REPRESENTATION(' ',(#10,#11,#12,#13,#14,#15,#16,#17,#18,#19,#20,#21,#22,#23,#24,#25),#6);
#2=PRODUCT_DEFINITION_CONTEXT('',#26,'design');
#3=APPLICATION_PROTOCOL_DEFINITION('INTERNATIONAL STANDARD','automotive_design',1994,#26);
#4=PRODUCT_CATEGORY_RELATIONSHIP('NONE','NONE',#27,#28);
#5=SHAPE_DEFINITION_REPRESENTATION(#29,#30);
#6= (GEOMETRIC_REPRESENTATION_CONTEXT(3)GLOBAL_UNCERTAINTY_ASSIGNED_CONTEXT((#33))GLOBAL_UNIT_ASSIGNED_CONTEXT((#35,#36,#37))REPRESENTATION_CONTEXT('NONE','WORKSPACE'));
#10=STYLED_ITEM('',(#39),#40);
#11=STYLED_ITEM('',(#41),#42);
#12=STYLED_ITEM('',(#43),#44);
#13=STYLED_ITEM('',(#45),#46);
#14=STYLED_ITEM('',(#47),#48);
#15=STYLED_ITEM('',(#49),#50);
#16=STYLED_ITEM('',(#51),#52);
#17=STYLED_ITEM('',(#53),#54);
#18=STYLED_ITEM('',(#55),#56);
#19=STYLED_ITEM('',(#57),#58);
#20=STYLED_ITEM('',(#59),#60);
#21=STYLED_ITEM('',(#61),#62);
#22=STYLED_ITEM('',(#63),#64);
#23=STYLED_ITEM('',(#65),#66);
#24=STYLED_ITEM('',(#67),#68);
#25=STYLED_ITEM('',(#69),#70);
#26=APPLICATION_CONTEXT(' ');
#27=PRODUCT_CATEGORY('part','NONE');
#28=PRODUCT_RELATED_PRODUCT_CATEGORY('detail',' ',(#71));
#29=PRODUCT_DEFINITION_SHAPE('NONE','NONE',#72);
#30=ADVANCED_BREP_SHAPE_REPRESENTATION('2020_01_13__11-27-51-973',(#70,#73),#6);
#33=UNCERTAINTY_MEASURE_WITH_UNIT(LENGTH_MEASURE(1.0E-006),#35,'','');
#35= (CONVERSION_BASED_UNIT('MILLIMETRE',#76)LENGTH_UNIT()NAMED_UNIT(#79));
#36= (NAMED_UNIT(#81)PLANE_ANGLE_UNIT()SI_UNIT($,.RADIAN.));
#37= (NAMED_UNIT(#81)SOLID_ANGLE_UNIT()SI_UNIT($,.STERADIAN.));
#39=PRESENTATION_STYLE_ASSIGNMENT((#87));
#40=ADVANCED_FACE('',(#88),#89,.T.);
#41=PRESENTATION_STYLE_ASSIGNMENT((#90));
#42=ADVANCED_FACE('',(#91),#92,.T.);
#43=PRESENTATION_STYLE_ASSIGNMENT((#93));
#44=ADVANCED_FACE('',(#94),#95,.T.);
#45=PRESENTATION_STYLE_ASSIGNMENT((#96));
#46=ADVANCED_FACE('',(#97),#98,.T.);
#47=PRESENTATION_STYLE_ASSIGNMENT((#99));
#48=ADVANCED_FACE('',(#100),#101,.T.);
#49=PRESENTATION_STYLE_ASSIGNMENT((#102));
#50=ADVANCED_FACE('',(#103),#104,.T.);
#51=PRESENTATION_STYLE_ASSIGNMENT((#105));
#52=ADVANCED_FACE('',(#106),#107,.T.);
#53=PRESENTATION_STYLE_ASSIGNMENT((#108));
#54=ADVANCED_FACE('',(#109),#110,.T.);
#55=PRESENTATION_STYLE_ASSIGNMENT((#111));
#56=ADVANCED_FACE('',(#112),#113,.T.);
#57=PRESENTATION_STYLE_ASSIGNMENT((#114));
#58=ADVANCED_FACE('',(#115),#116,.T.);
#59=PRESENTATION_STYLE_ASSIGNMENT((#117));
#60=ADVANCED_FACE('',(#118),#119,.T.);
#61=PRESENTATION_STYLE_ASSIGNMENT((#120));
#62=ADVANCED_FACE('',(#121),#122,.T.);
#63=PRESENTATION_STYLE_ASSIGNMENT((#123));
#64=ADVANCED_FACE('',(#124),#125,.T.);
#65=PRESENTATION_STYLE_ASSIGNMENT((#126));
#66=ADVANCED_FACE('',(#127),#128,.T.);
#67=PRESENTATION_STYLE_ASSIGNMENT((#129));
#68=ADVANCED_FACE('',(#130),#131,.F.);
#69=PRESENTATION_STYLE_ASSIGNMENT((#132));
#70=MANIFOLD_SOLID_BREP('2020_01_13__11-27-51-973',#133);
#71=PRODUCT('2020_01_13__11-27-51-973','','PART--DESC',(#134));
#72=PRODUCT_DEFINITION('','NONE',#135,#2);
#73=AXIS2_PLACEMENT_3D('',#136,#137,#138);
#76=LENGTH_MEASURE_WITH_UNIT(LENGTH_MEASURE(1.0),#139);
#79=DIMENSIONAL_EXPONENTS(1.0,0.0,0.0,0.0,0.0,0.0,0.0);
#81=DIMENSIONAL_EXPONENTS(0.0,0.0,0.0,0.0,0.0,0.0,0.0);
#87=SURFACE_STYLE_USAGE(.BOTH.,#140);
#88=FACE_OUTER_BOUND('',#141,.T.);
#89=PLANE('',#142);
#90=SURFACE_STYLE_USAGE(.BOTH.,#143);
#91=FACE_OUTER_BOUND('',#144,.T.);
#92=PLANE('',#145);
#93=SURFACE_STYLE_USAGE(.BOTH.,#146);
#94=FACE_OUTER_BOUND('',#147,.T.);
#95=PLANE('',#148);
#96=SURFACE_STYLE_USAGE(.BOTH.,#149);
#97=FACE_OUTER_BOUND('',#150,.T.);
#98=PLANE('',#151);
#99=SURFACE_STYLE_USAGE(.BOTH.,#152);
#100=FACE_OUTER_BOUND('',#153,.T.);
#101=PLANE('',#154);
#102=SURFACE_STYLE_USAGE(.BOTH.,#155);
#103=FACE_OUTER_BOUND('',#156,.T.);
#104=PLANE('',#157);
#105=SURFACE_STYLE_USAGE(.BOTH.,#158);
#106=FACE_OUTER_BOUND('',#159,.T.);
#107=PLANE('',#160);
#108=SURFACE_STYLE_USAGE(.BOTH.,#161);
#109=FACE_OUTER_BOUND('',#162,.T.);
#110=PLANE('',#163);
#111=SURFACE_STYLE_USAGE(.BOTH.,#164);
#112=FACE_OUTER_BOUND('',#165,.T.);
#113=PLANE('',#166);
#114=SURFACE_STYLE_USAGE(.BOTH.,#167);
#115=FACE_OUTER_BOUND('',#168,.T.);
#116=PLANE('',#169);
#117=SURFACE_STYLE_USAGE(.BOTH.,#170);
#118=FACE_OUTER_BOUND('',#171,.T.);
#119=PLANE('',#172);
#120=SURFACE_STYLE_USAGE(.BOTH.,#173);
#121=FACE_OUTER_BOUND('',#174,.T.);
#122=PLANE('',#175);
#123=SURFACE_STYLE_USAGE(.BOTH.,#176);
#124=FACE_OUTER_BOUND('',#177,.T.);
#125=PLANE('',#178);
#126=SURFACE_STYLE_USAGE(.BOTH.,#179);
#127=FACE_OUTER_BOUND('',#180,.T.);
#128=PLANE('',#181);
#129=SURFACE_STYLE_USAGE(.BOTH.,#182);
#130=FACE_OUTER_BOUND('',#183,.T.);
#131=PLANE('',#184);
#132=SURFACE_STYLE_USAGE(.BOTH.,#185);
#133=CLOSED_SHELL('',(#40,#42,#44,#46,#48,#50,#52,#54,#56,#58,#60,#62,#64,#66,#68));
#134=PRODUCT_CONTEXT('',#26,'mechanical');
#135=PRODUCT_DEFINITION_FORMATION_WITH_SPECIFIED_SOURCE(' ','NONE',#71,.NOT_KNOWN.);
#136=CARTESIAN_POINT('',(0.0,0.0,0.0));
#137=DIRECTION('',(0.0,0.0,1.0));
#138=DIRECTION('',(1.0,0.0,0.0));
#139= (NAMED_UNIT(#79)LENGTH_UNIT()SI_UNIT(.MILLI.,.METRE.));
#140=SURFACE_SIDE_STYLE('',(#187));
#141=EDGE_LOOP('',(#188,#189,#190,#191));
#142=AXIS2_PLACEMENT_3D('',#192,#193,#194);
#143=SURFACE_SIDE_STYLE('',(#195));
#144=EDGE_LOOP('',(#196,#197,#198,#199));
#145=AXIS2_PLACEMENT_3D('',#200,#201,#202);
#146=SURFACE_SIDE_STYLE('',(#203));
#147=EDGE_LOOP('',(#204,#205,#206,#207));
#148=AXIS2_PLACEMENT_3D('',#208,#209,#210);
#149=SURFACE_SIDE_STYLE('',(#211));
#150=EDGE_LOOP('',(#212,#213,#214,#215));
#151=AXIS2_PLACEMENT_3D('',#216,#217,#218);
#152=SURFACE_SIDE_STYLE('',(#219));
#153=EDGE_LOOP('',(#220,#221,#222,#223));
#154=AXIS2_PLACEMENT_3D('',#224,#225,#226);
#155=SURFACE_SIDE_STYLE('',(#227));
#156=EDGE_LOOP('',(#228,#229,#230,#231));
#157=AXIS2_PLACEMENT_3D('',#232,#233,#234);
#158=SURFACE_SIDE_STYLE('',(#235));
#159=EDGE_LOOP('',(#236,#237,#238,#239));
#160=AXIS2_PLACEMENT_3D('',#240,#241,#242);
#161=SURFACE_SIDE_STYLE('',(#243));
#162=EDGE_LOOP('',(#244,#245,#246,#247));
#163=AXIS2_PLACEMENT_3D('',#248,#249,#250);
#164=SURFACE_SIDE_STYLE('',(#251));
#165=EDGE_LOOP('',(#252,#253,#254,#255));
#166=AXIS2_PLACEMENT_3D('',#256,#257,#258);
#167=SURFACE_SIDE_STYLE('',(#259));
#168=EDGE_LOOP('',(#260,#261,#262,#263));
#169=AXIS2_PLACEMENT_3D('',#264,#265,#266);
#170=SURFACE_SIDE_STYLE('',(#267));
#171=EDGE_LOOP('',(#268,#269,#270,#271));
#172=AXIS2_PLACEMENT_3D('',#272,#273,#274);
#173=SURFACE_SIDE_STYLE('',(#275));
#174=EDGE_LOOP('',(#276,#277,#278,#279));
#175=AXIS2_PLACEMENT_3D('',#280,#281,#282);
#176=SURFACE_SIDE_STYLE('',(#283));
#177=EDGE_LOOP('',(#284,#285,#286,#287));
#178=AXIS2_PLACEMENT_3D('',#288,#289,#290);
#179=SURFACE_SIDE_STYLE('',(#291));
#180=EDGE_LOOP('',(#292,#293,#294,#295,#296,#297,#298,#299,#300,#301,#302,#303,#304));
#181=AXIS2_PLACEMENT_3D('',#305,#306,#307);
#182=SURFACE_SIDE_STYLE('',(#308));
#183=EDGE_LOOP('',(#309,#310,#311,#312,#313,#314,#315,#316,#317,#318,#319,#320,#321));
#184=AXIS2_PLACEMENT_3D('',#322,#323,#324);
#185=SURFACE_SIDE_STYLE('',(#325));
#187=SURFACE_STYLE_FILL_AREA(#326);
#188=ORIENTED_EDGE('',*,*,#327,.T.);
#189=ORIENTED_EDGE('',*,*,#328,.F.);
#190=ORIENTED_EDGE('',*,*,#329,.T.);
#191=ORIENTED_EDGE('',*,*,#330,.T.);
#192=CARTESIAN_POINT('',(1.110223E-015,-0.919615242270661,5.0));
#193=DIRECTION('',(1.922963E-016,0.500000000000002,0.866025403784437));
#194=DIRECTION('',(1.0,-3.84592599999998E-016,0.0));
#195=SURFACE_STYLE_FILL_AREA(#331);
#196=ORIENTED_EDGE('',*,*,#332,.T.);
#197=ORIENTED_EDGE('',*,*,#333,.F.);
#198=ORIENTED_EDGE('',*,*,#334,.T.);
#199=ORIENTED_EDGE('',*,*,#328,.T.);
#200=CARTESIAN_POINT('',(9.923306E-016,-5.119889E-016,4.46905989232415));
#201=DIRECTION('',(1.922963E-016,-0.499999999999998,0.86602540378444));
#202=DIRECTION('',(-1.0,-3.84592600000002E-016,0.0));
#203=SURFACE_STYLE_FILL_AREA(#335);
#204=ORIENTED_EDGE('',*,*,#336,.T.);
#205=ORIENTED_EDGE('',*,*,#337,.F.);
#206=ORIENTED_EDGE('',*,*,#338,.T.);
#207=ORIENTED_EDGE('',*,*,#333,.T.);
#208=CARTESIAN_POINT('',(1.110223E-015,0.919615242270665,5.0));
#209=DIRECTION('',(0.0,0.0,1.0));
#210=DIRECTION('',(1.0,-0.0,0.0));
#211=SURFACE_STYLE_FILL_AREA(#339);
#212=ORIENTED_EDGE('',*,*,#340,.T.);
#213=ORIENTED_EDGE('',*,*,#341,.F.);
#214=ORIENTED_EDGE('',*,*,#342,.T.);
#215=ORIENTED_EDGE('',*,*,#337,.T.);
#216=CARTESIAN_POINT('',(1.110223E-015,5.0,5.0));
#217=DIRECTION('',(0.0,1.0,0.0));
#218=DIRECTION('',(1.0,0.0,-0.0));
#219=SURFACE_STYLE_FILL_AREA(#343);
#220=ORIENTED_EDGE('',*,*,#344,.T.);
#221=ORIENTED_EDGE('',*,*,#345,.F.);
#222=ORIENTED_EDGE('',*,*,#346,.T.);
#223=ORIENTED_EDGE('',*,*,#341,.T.);
#224=CARTESIAN_POINT('',(-3.398965E-031,5.0,-2.143061E-015));
#225=DIRECTION('',(0.0,0.0,1.0));
#226=DIRECTION('',(1.0,-0.0,0.0));
#227=SURFACE_STYLE_FILL_AREA(#347);
#228=ORIENTED_EDGE('',*,*,#348,.T.);
#229=ORIENTED_EDGE('',*,*,#349,.F.);
#230=ORIENTED_EDGE('',*,*,#350,.T.);
#231=ORIENTED_EDGE('',*,*,#345,.T.);
#232=CARTESIAN_POINT('',(-6.627983E-031,9.75,-4.178969E-015));
#233=DIRECTION('',(0.0,1.0,0.0));
#234=DIRECTION('',(1.0,0.0,-0.0));
#235=SURFACE_STYLE_FILL_AREA(#351);
#236=ORIENTED_EDGE('',*,*,#352,.T.);
#237=ORIENTED_EDGE('',*,*,#353,.F.);
#238=ORIENTED_EDGE('',*,*,#354,.T.);
#239=ORIENTED_EDGE('',*,*,#349,.T.);
#240=CARTESIAN_POINT('',(-4.440892E-016,9.75,-2.0));
#241=DIRECTION('',(-1.570092E-016,0.707106781186547,-0.707106781186548));
#242=DIRECTION('',(-1.0,0.0,2.2204454005735E-016));
#243=SURFACE_STYLE_FILL_AREA(#355);
#244=ORIENTED_EDGE('',*,*,#356,.T.);
#245=ORIENTED_EDGE('',*,*,#357,.F.);
#246=ORIENTED_EDGE('',*,*,#358,.T.);
#247=ORIENTED_EDGE('',*,*,#353,.T.);
#248=CARTESIAN_POINT('',(-1.221245E-015,6.25,-5.5));
#249=DIRECTION('',(0.0,0.0,-1.0));
#250=DIRECTION('',(0.0,-1.0,0.0));
#251=SURFACE_STYLE_FILL_AREA(#359);
#252=ORIENTED_EDGE('',*,*,#360,.T.);
#253=ORIENTED_EDGE('',*,*,#361,.F.);
#254=ORIENTED_EDGE('',*,*,#362,.T.);
#255=ORIENTED_EDGE('',*,*,#357,.T.);
#256=CARTESIAN_POINT('',(-1.221245E-015,-6.25,-5.5));
#257=DIRECTION('',(-1.570092E-016,-0.707106781186548,-0.707106781186547));
#258=DIRECTION('',(0.0,0.707106781186547,-0.707106781186548));
#259=SURFACE_STYLE_FILL_AREA(#363);
#260=ORIENTED_EDGE('',*,*,#364,.T.);
#261=ORIENTED_EDGE('',*,*,#365,.F.);
#262=ORIENTED_EDGE('',*,*,#366,.T.);
#263=ORIENTED_EDGE('',*,*,#361,.T.);
#264=CARTESIAN_POINT('',(-4.440892E-016,-9.75,-2.0));
#265=DIRECTION('',(0.0,-1.0,0.0));
#266=DIRECTION('',(0.0,0.0,-1.0));
#267=SURFACE_STYLE_FILL_AREA(#367);
#268=ORIENTED_EDGE('',*,*,#368,.T.);
#269=ORIENTED_EDGE('',*,*,#369,.F.);
#270=ORIENTED_EDGE('',*,*,#370,.T.);
#271=ORIENTED_EDGE('',*,*,#365,.T.);
#272=CARTESIAN_POINT('',(6.627983E-031,-9.75,4.178969E-015));
#273=DIRECTION('',(0.0,0.0,1.0));
#274=DIRECTION('',(1.0,-0.0,0.0));
#275=SURFACE_STYLE_FILL_AREA(#371);
#276=ORIENTED_EDGE('',*,*,#372,.T.);
#277=ORIENTED_EDGE('',*,*,#373,.F.);
#278=ORIENTED_EDGE('',*,*,#374,.T.);
#279=ORIENTED_EDGE('',*,*,#369,.T.);
#280=CARTESIAN_POINT('',(3.398965E-031,-5.0,2.143061E-015));
#281=DIRECTION('',(0.0,-1.0,0.0));
#282=DIRECTION('',(0.0,0.0,-1.0));
#283=SURFACE_STYLE_FILL_AREA(#375);
#284=ORIENTED_EDGE('',*,*,#376,.T.);
#285=ORIENTED_EDGE('',*,*,#330,.F.);
#286=ORIENTED_EDGE('',*,*,#377,.T.);
#287=ORIENTED_EDGE('',*,*,#373,.T.);
#288=CARTESIAN_POINT('',(1.110223E-015,-5.0,5.0));
#289=DIRECTION('',(0.0,0.0,1.0));
#290=DIRECTION('',(1.0,-0.0,0.0));
#291=SURFACE_STYLE_FILL_AREA(#378);
#292=ORIENTED_EDGE('',*,*,#327,.F.);
#293=ORIENTED_EDGE('',*,*,#376,.F.);
#294=ORIENTED_EDGE('',*,*,#372,.F.);
#295=ORIENTED_EDGE('',*,*,#368,.F.);
#296=ORIENTED_EDGE('',*,*,#364,.F.);
#297=ORIENTED_EDGE('',*,*,#360,.F.);
#298=ORIENTED_EDGE('',*,*,#356,.F.);
#299=ORIENTED_EDGE('',*,*,#352,.F.);
#300=ORIENTED_EDGE('',*,*,#348,.F.);
#301=ORIENTED_EDGE('',*,*,#344,.F.);
#302=ORIENTED_EDGE('',*,*,#340,.F.);
#303=ORIENTED_EDGE('',*,*,#336,.F.);
#304=ORIENTED_EDGE('',*,*,#332,.F.);
#305=CARTESIAN_POINT('',(1000.0,-3.149964E-016,-0.605407874361853));
#306=DIRECTION('',(1.0,0.0,0.0));
#307=DIRECTION('',(0.0,1.0,-0.0));
#308=SURFACE_STYLE_FILL_AREA(#379);
#309=ORIENTED_EDGE('',*,*,#377,.F.);
#310=ORIENTED_EDGE('',*,*,#329,.F.);
#311=ORIENTED_EDGE('',*,*,#334,.F.);
#312=ORIENTED_EDGE('',*,*,#338,.F.);
#313=ORIENTED_EDGE('',*,*,#342,.F.);
#314=ORIENTED_EDGE('',*,*,#346,.F.);
#315=ORIENTED_EDGE('',*,*,#350,.F.);
#316=ORIENTED_EDGE('',*,*,#354,.F.);
#317=ORIENTED_EDGE('',*,*,#358,.F.);
#318=ORIENTED_EDGE('',*,*,#362,.F.);
#319=ORIENTED_EDGE('',*,*,#366,.F.);
#320=ORIENTED_EDGE('',*,*,#370,.F.);
#321=ORIENTED_EDGE('',*,*,#374,.F.);
#322=CARTESIAN_POINT('',(-1.344276E-016,-3.149964E-016,-0.605407874361631));
#323=DIRECTION('',(1.0,0.0,0.0));
#324=DIRECTION('',(0.0,1.0,-0.0));
#325=SURFACE_STYLE_FILL_AREA(#380);
#326=FILL_AREA_STYLE('',(#381));
#327=EDGE_CURVE('',#382,#383,#384,.T.);
#328=EDGE_CURVE('',#385,#383,#386,.T.);
#329=EDGE_CURVE('',#385,#387,#388,.T.);
#330=EDGE_CURVE('',#387,#382,#389,.T.);
#331=FILL_AREA_STYLE('',(#390));
#332=EDGE_CURVE('',#383,#391,#392,.T.);
#333=EDGE_CURVE('',#393,#391,#394,.T.);
#334=EDGE_CURVE('',#393,#385,#395,.T.);
#335=FILL_AREA_STYLE('',(#396));
#336=EDGE_CURVE('',#391,#397,#398,.T.);
#337=EDGE_CURVE('',#399,#397,#400,.T.);
#338=EDGE_CURVE('',#399,#393,#401,.T.);
#339=FILL_AREA_STYLE('',(#402));
#340=EDGE_CURVE('',#397,#403,#404,.T.);
#341=EDGE_CURVE('',#405,#403,#406,.T.);
#342=EDGE_CURVE('',#405,#399,#407,.T.);
#343=FILL_AREA_STYLE('',(#408));
#344=EDGE_CURVE('',#403,#409,#410,.T.);
#345=EDGE_CURVE('',#411,#409,#412,.T.);
#346=EDGE_CURVE('',#411,#405,#413,.T.);
#347=FILL_AREA_STYLE('',(#414));
#348=EDGE_CURVE('',#409,#415,#416,.T.);
#349=EDGE_CURVE('',#417,#415,#418,.T.);
#350=EDGE_CURVE('',#417,#411,#419,.T.);
#351=FILL_AREA_STYLE('',(#420));
#352=EDGE_CURVE('',#415,#421,#422,.T.);
#353=EDGE_CURVE('',#423,#421,#424,.T.);
#354=EDGE_CURVE('',#423,#417,#425,.T.);
#355=FILL_AREA_STYLE('',(#426));
#356=EDGE_CURVE('',#421,#427,#428,.T.);
#357=EDGE_CURVE('',#429,#427,#430,.T.);
#358=EDGE_CURVE('',#429,#423,#431,.T.);
#359=FILL_AREA_STYLE('',(#432));
#360=EDGE_CURVE('',#427,#433,#434,.T.);
#361=EDGE_CURVE('',#435,#433,#436,.T.);
#362=EDGE_CURVE('',#435,#429,#437,.T.);
#363=FILL_AREA_STYLE('',(#438));
#364=EDGE_CURVE('',#433,#439,#440,.T.);
#365=EDGE_CURVE('',#441,#439,#442,.T.);
#366=EDGE_CURVE('',#441,#435,#443,.T.);
#367=FILL_AREA_STYLE('',(#444));
#368=EDGE_CURVE('',#439,#445,#446,.T.);
#369=EDGE_CURVE('',#447,#445,#448,.T.);
#370=EDGE_CURVE('',#447,#441,#449,.T.);
#371=FILL_AREA_STYLE('',(#450));
#372=EDGE_CURVE('',#445,#451,#452,.T.);
#373=EDGE_CURVE('',#453,#451,#454,.T.);
#374=EDGE_CURVE('',#453,#447,#455,.T.);
#375=FILL_AREA_STYLE('',(#456));
#376=EDGE_CURVE('',#451,#382,#457,.T.);
#377=EDGE_CURVE('',#387,#453,#458,.T.);
#378=FILL_AREA_STYLE('',(#459));
#379=FILL_AREA_STYLE('',(#460));
#380=FILL_AREA_STYLE('',(#461));
#381=FILL_AREA_STYLE_COLOUR('',#462);
#382=VERTEX_POINT('',#463);
#383=VERTEX_POINT('',#464);
#384=LINE('',#465,#466);
#385=VERTEX_POINT('',#467);
#386=LINE('',#468,#469);
#387=VERTEX_POINT('',#470);
#388=LINE('',#471,#472);
#389=LINE('',#473,#474);
#390=FILL_AREA_STYLE_COLOUR('',#475);
#391=VERTEX_POINT('',#476);
#392=LINE('',#477,#478);
#393=VERTEX_POINT('',#479);
#394=LINE('',#480,#481);
#395=LINE('',#482,#483);
#396=FILL_AREA_STYLE_COLOUR('',#484);
#397=VERTEX_POINT('',#485);
#398=LINE('',#486,#487);
#399=VERTEX_POINT('',#488);
#400=LINE('',#489,#490);
#401=LINE('',#491,#492);
#402=FILL_AREA_STYLE_COLOUR('',#493);
#403=VERTEX_POINT('',#494);
#404=LINE('',#495,#496);
#405=VERTEX_POINT('',#497);
#406=LINE('',#498,#499);
#407=LINE('',#500,#501);
#408=FILL_AREA_STYLE_COLOUR('',#502);
#409=VERTEX_POINT('',#503);
#410=LINE('',#504,#505);
#411=VERTEX_POINT('',#506);
#412=LINE('',#507,#508);
#413=LINE('',#509,#510);
#414=FILL_AREA_STYLE_COLOUR('',#511);
#415=VERTEX_POINT('',#512);
#416=LINE('',#513,#514);
#417=VERTEX_POINT('',#515);
#418=LINE('',#516,#517);
#419=LINE('',#518,#519);
#420=FILL_AREA_STYLE_COLOUR('',#520);
#421=VERTEX_POINT('',#521);
#422=LINE('',#522,#523);
#423=VERTEX_POINT('',#524);
#424=LINE('',#525,#526);
#425=LINE('',#527,#528);
#426=FILL_AREA_STYLE_COLOUR('',#529);
#427=VERTEX_POINT('',#530);
#428=LINE('',#531,#532);
#429=VERTEX_POINT('',#533);
#430=LINE('',#534,#535);
#431=LINE('',#536,#537);
#432=FILL_AREA_STYLE_COLOUR('',#538);
#433=VERTEX_POINT('',#539);
#434=LINE('',#540,#541);
#435=VERTEX_POINT('',#542);
#436=LINE('',#543,#544);
#437=LINE('',#545,#546);
#438=FILL_AREA_STYLE_COLOUR('',#547);
#439=VERTEX_POINT('',#548);
#440=LINE('',#549,#550);
#441=VERTEX_POINT('',#551);
#442=LINE('',#552,#553);
#443=LINE('',#554,#555);
#444=FILL_AREA_STYLE_COLOUR('',#556);
#445=VERTEX_POINT('',#557);
#446=LINE('',#558,#559);
#447=VERTEX_POINT('',#560);
#448=LINE('',#561,#562);
#449=LINE('',#563,#564);
#450=FILL_AREA_STYLE_COLOUR('',#565);
#451=VERTEX_POINT('',#566);
#452=LINE('',#567,#568);
#453=VERTEX_POINT('',#569);
#454=LINE('',#570,#571);
#455=LINE('',#572,#573);
#456=FILL_AREA_STYLE_COLOUR('',#574);
#457=LINE('',#575,#576);
#458=LINE('',#577,#578);
#459=FILL_AREA_STYLE_COLOUR('',#579);
#460=FILL_AREA_STYLE_COLOUR('',#580);
#461=FILL_AREA_STYLE_COLOUR('',#581);
#462=COLOUR_RGB('',0.752941191196442,0.752941191196442,0.752941191196442);
#463=CARTESIAN_POINT('',(1000.0,-0.919615242270661,4.99999999999978));
#464=CARTESIAN_POINT('',(1000.0,-5.119889E-016,4.46905989232393));
#465=CARTESIAN_POINT('',(1000.0,-0.91961524227066,4.99999999999978));
#466=VECTOR('',#582,1.0618802153517);
#467=CARTESIAN_POINT('',(9.923306E-016,-5.119889E-016,4.46905989232415));
#468=CARTESIAN_POINT('',(9.923306E-016,-5.119889E-016,4.46905989232415));
#469=VECTOR('',#583,1000.0);
#470=CARTESIAN_POINT('',(1.110223E-015,-0.919615242270661,5.0));
#471=CARTESIAN_POINT('',(9.923306E-016,-5.119889E-016,4.46905989232415));
#472=VECTOR('',#584,1.0618802153517);
#473=CARTESIAN_POINT('',(1.110223E-015,-0.919615242270661,5.0));
#474=VECTOR('',#585,1000.0);
#475=COLOUR_RGB('',0.752941191196442,0.752941191196442,0.752941191196442);
#476=CARTESIAN_POINT('',(1000.0,0.919615242270665,4.99999999999978));
#477=CARTESIAN_POINT('',(1000.0,-7.771561E-016,4.46905989232393));
#478=VECTOR('',#586,1.0618802153517);
#479=CARTESIAN_POINT('',(1.110223E-015,0.919615242270665,5.0));
#480=CARTESIAN_POINT('',(1.110223E-015,0.919615242270665,5.0));
#481=VECTOR('',#587,1000.0);
#482=CARTESIAN_POINT('',(1.110223E-015,0.919615242270665,5.0));
#483=VECTOR('',#588,1.0618802153517);
#484=COLOUR_RGB('',0.752941191196442,0.752941191196442,0.752941191196442);
#485=CARTESIAN_POINT('',(1000.0,5.0,4.99999999999978));
#486=CARTESIAN_POINT('',(1000.0,0.919615242270665,4.99999999999978));
#487=VECTOR('',#589,4.08038475772934);
#488=CARTESIAN_POINT('',(1.110223E-015,5.0,5.0));
#489=CARTESIAN_POINT('',(1.110223E-015,5.0,5.0));
#490=VECTOR('',#590,1000.0);
#491=CARTESIAN_POINT('',(1.110223E-015,5.0,5.0));
#492=VECTOR('',#591,4.08038475772934);
#493=COLOUR_RGB('',0.752941191196442,0.752941191196442,0.752941191196442);
#494=CARTESIAN_POINT('',(1000.0,5.0,-2.241877E-013));
#495=CARTESIAN_POINT('',(1000.0,5.0,4.99999999999978));
#496=VECTOR('',#592,5.0);
#497=CARTESIAN_POINT('',(-3.398965E-031,5.0,-2.143061E-015));
#498=CARTESIAN_POINT('',(-3.398965E-031,5.0,-2.143061E-015));
#499=VECTOR('',#593,1000.0);
#500=CARTESIAN_POINT('',(-3.398965E-031,5.0,-2.143061E-015));
#501=VECTOR('',#594,5.0);
#502=COLOUR_RGB('',0.752941191196442,0.752941191196442,0.752941191196442);
#503=CARTESIAN_POINT('',(1000.0,9.75,-2.262236E-013));
#504=CARTESIAN_POINT('',(1000.0,5.0,-2.241877E-013));
#505=VECTOR('',#595,4.75);
#506=CARTESIAN_POINT('',(-6.627983E-031,9.75,-4.178969E-015));
#507=CARTESIAN_POINT('',(-6.627983E-031,9.75,-4.178969E-015));
#508=VECTOR('',#596,1000.0);
#509=CARTESIAN_POINT('',(-6.627983E-031,9.75,-4.178969E-015));
#510=VECTOR('',#597,4.75);
#511=COLOUR_RGB('',0.752941191196442,0.752941191196442,0.752941191196442);
#512=CARTESIAN_POINT('',(1000.0,9.75,-2.00000000000023));
#513=CARTESIAN_POINT('',(1000.0,9.75,-2.260414E-013));
#514=VECTOR('',#598,2.0);
#515=CARTESIAN_POINT('',(-4.440892E-016,9.75,-2.0));
#516=CARTESIAN_POINT('',(-4.440892E-016,9.75,-2.0));
#517=VECTOR('',#599,1000.0);
#518=CARTESIAN_POINT('',(-4.440892E-016,9.75,-2.0));
#519=VECTOR('',#600,2.0);
#520=COLOUR_RGB('',0.752941191196442,0.752941191196442,0.752941191196442);
#521=CARTESIAN_POINT('',(1000.0,6.25,-5.50000000000022));
#522=CARTESIAN_POINT('',(1000.0,9.75,-2.00000000000023));
#523=VECTOR('',#601,4.94974746830583);
#524=CARTESIAN_POINT('',(-1.221245E-015,6.25,-5.5));
#525=CARTESIAN_POINT('',(-1.221245E-015,6.25,-5.5));
#526=VECTOR('',#602,1000.0);
#527=CARTESIAN_POINT('',(-1.221245E-015,6.25,-5.5));
#528=VECTOR('',#603,4.94974746830583);
#529=COLOUR_RGB('',0.752941191196442,0.752941191196442,0.752941191196442);
#530=CARTESIAN_POINT('',(1000.0,-6.25,-5.50000000000022));
#531=CARTESIAN_POINT('',(1000.0,6.25,-5.50000000000022));
#532=VECTOR('',#604,12.5);
#533=CARTESIAN_POINT('',(-1.221245E-015,-6.25,-5.5));
#534=CARTESIAN_POINT('',(-1.221245E-015,-6.25,-5.5));
#535=VECTOR('',#605,1000.0);
#536=CARTESIAN_POINT('',(-1.221245E-015,-6.25,-5.5));
#537=VECTOR('',#606,12.5);
#538=COLOUR_RGB('',0.752941191196442,0.752941191196442,0.752941191196442);
#539=CARTESIAN_POINT('',(1000.0,-9.75,-2.00000000000022));
#540=CARTESIAN_POINT('',(1000.0,-6.25,-5.50000000000022));
#541=VECTOR('',#607,4.94974746830583);
#542=CARTESIAN_POINT('',(-4.440892E-016,-9.75,-2.0));
#543=CARTESIAN_POINT('',(-4.440892E-016,-9.75,-2.0));
#544=VECTOR('',#608,1000.0);
#545=CARTESIAN_POINT('',(-4.440892E-016,-9.75,-2.0));
#546=VECTOR('',#609,4.94974746830583);
#547=COLOUR_RGB('',0.752941191196442,0.752941191196442,0.752941191196442);
#548=CARTESIAN_POINT('',(1000.0,-9.75,-2.178656E-013));
#549=CARTESIAN_POINT('',(1000.0,-9.75,-2.00000000000022));
#550=VECTOR('',#610,2.0);
#551=CARTESIAN_POINT('',(6.627983E-031,-9.75,4.178969E-015));
#552=CARTESIAN_POINT('',(6.627983E-031,-9.75,4.178969E-015));
#553=VECTOR('',#611,1000.0);
#554=CARTESIAN_POINT('',(6.627983E-031,-9.75,4.178969E-015));
#555=VECTOR('',#612,2.0);
#556=COLOUR_RGB('',0.752941191196442,0.752941191196442,0.752941191196442);
#557=CARTESIAN_POINT('',(1000.0,-5.0,-2.199015E-013));
#558=CARTESIAN_POINT('',(1000.0,-9.75,-2.178656E-013));
#559=VECTOR('',#613,4.75);
#560=CARTESIAN_POINT('',(3.398965E-031,-5.0,2.143061E-015));
#561=CARTESIAN_POINT('',(3.398965E-031,-5.0,2.143061E-015));
#562=VECTOR('',#614,1000.0);
#563=CARTESIAN_POINT('',(3.398965E-031,-5.0,2.143061E-015));
#564=VECTOR('',#615,4.75);
#565=COLOUR_RGB('',0.752941191196442,0.752941191196442,0.752941191196442);
#566=CARTESIAN_POINT('',(1000.0,-5.0,4.99999999999978));
#567=CARTESIAN_POINT('',(1000.0,-5.0,-2.202682E-013));
#568=VECTOR('',#616,5.0);
#569=CARTESIAN_POINT('',(1.110223E-015,-5.0,5.0));
#570=CARTESIAN_POINT('',(1.110223E-015,-5.0,5.0));
#571=VECTOR('',#617,1000.0);
#572=CARTESIAN_POINT('',(1.110223E-015,-5.0,5.0));
#573=VECTOR('',#618,5.0);
#574=COLOUR_RGB('',0.752941191196442,0.752941191196442,0.752941191196442);
#575=CARTESIAN_POINT('',(1000.0,-5.0,4.99999999999978));
#576=VECTOR('',#619,4.08038475772934);
#577=CARTESIAN_POINT('',(1.110223E-015,-0.919615242270661,5.0));
#578=VECTOR('',#620,4.08038475772934);
#579=COLOUR_RGB('',0.752941191196442,0.752941191196442,0.752941191196442);
#580=COLOUR_RGB('',0.752941191196442,0.752941191196442,0.752941191196442);
#581=COLOUR_RGB('',0.752941012382507,0.752941012382507,0.752941012382507);
#582=DIRECTION('',(0.0,0.866025403784437,-0.500000000000002));
#583=DIRECTION('',(1.0,0.0,0.0));
#584=DIRECTION('',(1.110223E-016,-0.866025403784437,0.500000000000002));
#585=DIRECTION('',(1.0,0.0,0.0));
#586=DIRECTION('',(0.0,0.866025403784439,0.499999999999999));
#587=DIRECTION('',(1.0,0.0,0.0));
#588=DIRECTION('',(-1.110223E-016,-0.866025403784439,-0.499999999999999));
#589=DIRECTION('',(0.0,1.0,0.0));
#590=DIRECTION('',(1.0,0.0,0.0));
#591=DIRECTION('',(0.0,-1.0,0.0));
#592=DIRECTION('',(0.0,0.0,-1.0));
#593=DIRECTION('',(1.0,0.0,0.0));
#594=DIRECTION('',(0.0,0.0,1.0));
#595=DIRECTION('',(0.0,1.0,0.0));
#596=DIRECTION('',(1.0,0.0,0.0));
#597=DIRECTION('',(0.0,-1.0,0.0));
#598=DIRECTION('',(0.0,0.0,-1.0));
#599=DIRECTION('',(1.0,0.0,0.0));
#600=DIRECTION('',(0.0,0.0,1.0));
#601=DIRECTION('',(0.0,-0.707106781186548,-0.707106781186547));
#602=DIRECTION('',(1.0,0.0,0.0));
#603=DIRECTION('',(1.570092E-016,0.707106781186548,0.707106781186547));
#604=DIRECTION('',(0.0,-1.0,0.0));
#605=DIRECTION('',(1.0,0.0,0.0));
#606=DIRECTION('',(0.0,1.0,0.0));
#607=DIRECTION('',(0.0,-0.707106781186547,0.707106781186548));
#608=DIRECTION('',(1.0,0.0,0.0));
#609=DIRECTION('',(-1.570092E-016,0.707106781186547,-0.707106781186548));
#610=DIRECTION('',(0.0,0.0,1.0));
#611=DIRECTION('',(1.0,0.0,0.0));
#612=DIRECTION('',(0.0,0.0,-1.0));
#613=DIRECTION('',(0.0,1.0,0.0));
#614=DIRECTION('',(1.0,0.0,0.0));
#615=DIRECTION('',(0.0,-1.0,0.0));
#616=DIRECTION('',(0.0,0.0,1.0));
#617=DIRECTION('',(1.0,0.0,0.0));
#618=DIRECTION('',(0.0,0.0,-1.0));
#619=DIRECTION('',(0.0,1.0,0.0));
#620=DIRECTION('',(0.0,-1.0,0.0));
ENDSEC;
END-ISO-10303-21;
