ISO-10303-21;
HEADER;
FILE_DESCRIPTION(('STEP AP214'),'1');
FILE_NAME('cctmp_3E35F903-9D4B-49E0-A94E-D9AE9152AED4_2020_1_13_11_2_18_78..stp','2020-01-13T10:02:18',('Bosch Rexroth AG'),('CADClick - www.CADClick.com'),'Spatial InterOp 3D',' ','unknown authorization - (Healing Option Enabled)');
FILE_SCHEMA(('AUTOMOTIVE_DESIGN'));
ENDSEC;
DATA;
#1=MECHANICAL_DESIGN_GEOMETRIC_PRESENTATION_REPRESENTATION(' ',(#10,#11,#12,#13,#14,#15,#16,#17,#18,#19,#20,#21,#22,#23,#24,#25,#26,#27,#28,#29),#6);
#2=PRODUCT_DEFINITION_CONTEXT('',#30,'design');
#3=APPLICATION_PROTOCOL_DEFINITION('INTERNATIONAL STANDARD','automotive_design',1994,#30);
#4=PRODUCT_CATEGORY_RELATIONSHIP('NONE','NONE',#31,#32);
#5=SHAPE_DEFINITION_REPRESENTATION(#33,#34);
#6= (GEOMETRIC_REPRESENTATION_CONTEXT(3)GLOBAL_UNCERTAINTY_ASSIGNED_CONTEXT((#37))GLOBAL_UNIT_ASSIGNED_CONTEXT((#39,#40,#41))REPRESENTATION_CONTEXT('NONE','WORKSPACE'));
#10=STYLED_ITEM('',(#43),#44);
#11=STYLED_ITEM('',(#45),#46);
#12=STYLED_ITEM('',(#47),#48);
#13=STYLED_ITEM('',(#49),#50);
#14=STYLED_ITEM('',(#51),#52);
#15=STYLED_ITEM('',(#53),#54);
#16=STYLED_ITEM('',(#55),#56);
#17=STYLED_ITEM('',(#57),#58);
#18=STYLED_ITEM('',(#59),#60);
#19=STYLED_ITEM('',(#61),#62);
#20=STYLED_ITEM('',(#63),#64);
#21=STYLED_ITEM('',(#65),#66);
#22=STYLED_ITEM('',(#67),#68);
#23=STYLED_ITEM('',(#69),#70);
#24=STYLED_ITEM('',(#71),#72);
#25=STYLED_ITEM('',(#73),#74);
#26=STYLED_ITEM('',(#75),#76);
#27=STYLED_ITEM('',(#77),#78);
#28=STYLED_ITEM('',(#79),#80);
#29=STYLED_ITEM('',(#81),#82);
#30=APPLICATION_CONTEXT(' ');
#31=PRODUCT_CATEGORY('part','NONE');
#32=PRODUCT_RELATED_PRODUCT_CATEGORY('detail',' ',(#83));
#33=PRODUCT_DEFINITION_SHAPE('NONE','NONE',#84);
#34=ADVANCED_BREP_SHAPE_REPRESENTATION('2020_01_13__11-02-18-078',(#82,#85),#6);
#37=UNCERTAINTY_MEASURE_WITH_UNIT(LENGTH_MEASURE(1.0E-006),#39,'','');
#39= (CONVERSION_BASED_UNIT('MILLIMETRE',#88)LENGTH_UNIT()NAMED_UNIT(#91));
#40= (NAMED_UNIT(#93)PLANE_ANGLE_UNIT()SI_UNIT($,.RADIAN.));
#41= (NAMED_UNIT(#93)SOLID_ANGLE_UNIT()SI_UNIT($,.STERADIAN.));
#43=PRESENTATION_STYLE_ASSIGNMENT((#99));
#44=ADVANCED_FACE('',(#100),#101,.T.);
#45=PRESENTATION_STYLE_ASSIGNMENT((#102));
#46=ADVANCED_FACE('',(#103),#104,.T.);
#47=PRESENTATION_STYLE_ASSIGNMENT((#105));
#48=ADVANCED_FACE('',(#106),#107,.T.);
#49=PRESENTATION_STYLE_ASSIGNMENT((#108));
#50=ADVANCED_FACE('',(#109),#110,.T.);
#51=PRESENTATION_STYLE_ASSIGNMENT((#111));
#52=ADVANCED_FACE('',(#112),#113,.T.);
#53=PRESENTATION_STYLE_ASSIGNMENT((#114));
#54=ADVANCED_FACE('',(#115),#116,.T.);
#55=PRESENTATION_STYLE_ASSIGNMENT((#117));
#56=ADVANCED_FACE('',(#118),#119,.T.);
#57=PRESENTATION_STYLE_ASSIGNMENT((#120));
#58=ADVANCED_FACE('',(#121),#122,.T.);
#59=PRESENTATION_STYLE_ASSIGNMENT((#123));
#60=ADVANCED_FACE('',(#124),#125,.T.);
#61=PRESENTATION_STYLE_ASSIGNMENT((#126));
#62=ADVANCED_FACE('',(#127),#128,.T.);
#63=PRESENTATION_STYLE_ASSIGNMENT((#129));
#64=ADVANCED_FACE('',(#130),#131,.T.);
#65=PRESENTATION_STYLE_ASSIGNMENT((#132));
#66=ADVANCED_FACE('',(#133),#134,.T.);
#67=PRESENTATION_STYLE_ASSIGNMENT((#135));
#68=ADVANCED_FACE('',(#136),#137,.T.);
#69=PRESENTATION_STYLE_ASSIGNMENT((#138));
#70=ADVANCED_FACE('',(#139,#140),#141,.T.);
#71=PRESENTATION_STYLE_ASSIGNMENT((#142));
#72=ADVANCED_FACE('',(#143),#144,.T.);
#73=PRESENTATION_STYLE_ASSIGNMENT((#145));
#74=ADVANCED_FACE('',(#146),#147,.T.);
#75=PRESENTATION_STYLE_ASSIGNMENT((#148));
#76=ADVANCED_FACE('',(#149),#150,.T.);
#77=PRESENTATION_STYLE_ASSIGNMENT((#151));
#78=ADVANCED_FACE('',(#152),#153,.T.);
#79=PRESENTATION_STYLE_ASSIGNMENT((#154));
#80=ADVANCED_FACE('',(#155),#156,.F.);
#81=PRESENTATION_STYLE_ASSIGNMENT((#157));
#82=MANIFOLD_SOLID_BREP('2020_01_13__11-02-18-078',#158);
#83=PRODUCT('2020_01_13__11-02-18-078','','PART--DESC',(#159));
#84=PRODUCT_DEFINITION('','NONE',#160,#2);
#85=AXIS2_PLACEMENT_3D('',#161,#162,#163);
#88=LENGTH_MEASURE_WITH_UNIT(LENGTH_MEASURE(1.0),#164);
#91=DIMENSIONAL_EXPONENTS(1.0,0.0,0.0,0.0,0.0,0.0,0.0);
#93=DIMENSIONAL_EXPONENTS(0.0,0.0,0.0,0.0,0.0,0.0,0.0);
#99=SURFACE_STYLE_USAGE(.BOTH.,#165);
#100=FACE_OUTER_BOUND('',#166,.T.);
#101=TOROIDAL_SURFACE('',#167,0.0408694591807923,5.60000000000863);
#102=SURFACE_STYLE_USAGE(.BOTH.,#168);
#103=FACE_OUTER_BOUND('',#169,.T.);
#104=TOROIDAL_SURFACE('',#170,0.0408694592041766,5.60000000000701);
#105=SURFACE_STYLE_USAGE(.BOTH.,#171);
#106=FACE_OUTER_BOUND('',#172,.T.);
#107=PLANE('',#173);
#108=SURFACE_STYLE_USAGE(.BOTH.,#174);
#109=FACE_OUTER_BOUND('',#175,.T.);
#110=CONICAL_SURFACE('',#176,2.50915066766019,0.076326601893241);
#111=SURFACE_STYLE_USAGE(.BOTH.,#177);
#112=FACE_OUTER_BOUND('',#178,.T.);
#113=CONICAL_SURFACE('',#179,2.50915066766019,0.076326601893241);
#114=SURFACE_STYLE_USAGE(.BOTH.,#180);
#115=FACE_OUTER_BOUND('',#181,.T.);
#116=CONICAL_SURFACE('',#182,3.06775241609037,0.599925376893239);
#117=SURFACE_STYLE_USAGE(.BOTH.,#183);
#118=FACE_OUTER_BOUND('',#184,.T.);
#119=CONICAL_SURFACE('',#185,3.06775241609037,0.599925376893239);
#120=SURFACE_STYLE_USAGE(.BOTH.,#186);
#121=FACE_OUTER_BOUND('',#187,.T.);
#122=CYLINDRICAL_SURFACE('',#188,3.0);
#123=SURFACE_STYLE_USAGE(.BOTH.,#189);
#124=FACE_OUTER_BOUND('',#190,.T.);
#125=CYLINDRICAL_SURFACE('',#191,3.0);
#126=SURFACE_STYLE_USAGE(.BOTH.,#192);
#127=FACE_OUTER_BOUND('',#193,.T.);
#128=CONICAL_SURFACE('',#194,3.04965833964972,0.426627492639383);
#129=SURFACE_STYLE_USAGE(.BOTH.,#195);
#130=FACE_OUTER_BOUND('',#196,.T.);
#131=CONICAL_SURFACE('',#197,3.04965833964972,0.426627492639383);
#132=SURFACE_STYLE_USAGE(.BOTH.,#198);
#133=FACE_OUTER_BOUND('',#199,.T.);
#134=CYLINDRICAL_SURFACE('',#200,2.5);
#135=SURFACE_STYLE_USAGE(.BOTH.,#201);
#136=FACE_OUTER_BOUND('',#202,.T.);
#137=CYLINDRICAL_SURFACE('',#203,2.5);
#138=SURFACE_STYLE_USAGE(.BOTH.,#204);
#139=FACE_OUTER_BOUND('',#205,.T.);
#140=FACE_BOUND('',#206,.T.);
#141=PLANE('',#207);
#142=SURFACE_STYLE_USAGE(.BOTH.,#208);
#143=FACE_OUTER_BOUND('',#209,.T.);
#144=CYLINDRICAL_SURFACE('',#210,5.1);
#145=SURFACE_STYLE_USAGE(.BOTH.,#211);
#146=FACE_OUTER_BOUND('',#212,.T.);
#147=CYLINDRICAL_SURFACE('',#213,5.1);
#148=SURFACE_STYLE_USAGE(.BOTH.,#214);
#149=FACE_OUTER_BOUND('',#215,.T.);
#150=TOROIDAL_SURFACE('',#216,0.0408694592041766,5.60000000000701);
#151=SURFACE_STYLE_USAGE(.BOTH.,#217);
#152=FACE_OUTER_BOUND('',#218,.T.);
#153=TOROIDAL_SURFACE('',#219,0.0408694591807923,5.60000000000863);
#154=SURFACE_STYLE_USAGE(.BOTH.,#220);
#155=FACE_OUTER_BOUND('',#221,.T.);
#156=PLANE('',#222);
#157=SURFACE_STYLE_USAGE(.BOTH.,#223);
#158=CLOSED_SHELL('',(#44,#46,#48,#50,#52,#54,#56,#58,#60,#62,#64,#66,#68,#70,#72,#74,#76,#78,#80));
#159=PRODUCT_CONTEXT('',#30,'mechanical');
#160=PRODUCT_DEFINITION_FORMATION_WITH_SPECIFIED_SOURCE(' ','NONE',#83,.NOT_KNOWN.);
#161=CARTESIAN_POINT('',(0.0,0.0,0.0));
#162=DIRECTION('',(0.0,0.0,1.0));
#163=DIRECTION('',(1.0,0.0,0.0));
#164= (NAMED_UNIT(#91)LENGTH_UNIT()SI_UNIT(.MILLI.,.METRE.));
#165=SURFACE_SIDE_STYLE('',(#225));
#166=EDGE_LOOP('',(#226,#227,#228,#229));
#167=AXIS2_PLACEMENT_3D('',#230,#231,#232);
#168=SURFACE_SIDE_STYLE('',(#233));
#169=EDGE_LOOP('',(#234,#235,#236,#237));
#170=AXIS2_PLACEMENT_3D('',#238,#239,#240);
#171=SURFACE_SIDE_STYLE('',(#241));
#172=EDGE_LOOP('',(#242,#243));
#173=AXIS2_PLACEMENT_3D('',#244,#245,#246);
#174=SURFACE_SIDE_STYLE('',(#247));
#175=EDGE_LOOP('',(#248,#249,#250,#251));
#176=AXIS2_PLACEMENT_3D('',#252,#253,#254);
#177=SURFACE_SIDE_STYLE('',(#255));
#178=EDGE_LOOP('',(#256,#257,#258,#259));
#179=AXIS2_PLACEMENT_3D('',#260,#261,#262);
#180=SURFACE_SIDE_STYLE('',(#263));
#181=EDGE_LOOP('',(#264,#265,#266,#267));
#182=AXIS2_PLACEMENT_3D('',#268,#269,#270);
#183=SURFACE_SIDE_STYLE('',(#271));
#184=EDGE_LOOP('',(#272,#273,#274,#275));
#185=AXIS2_PLACEMENT_3D('',#276,#277,#278);
#186=SURFACE_SIDE_STYLE('',(#279));
#187=EDGE_LOOP('',(#280,#281,#282,#283));
#188=AXIS2_PLACEMENT_3D('',#284,#285,#286);
#189=SURFACE_SIDE_STYLE('',(#287));
#190=EDGE_LOOP('',(#288,#289,#290,#291));
#191=AXIS2_PLACEMENT_3D('',#292,#293,#294);
#192=SURFACE_SIDE_STYLE('',(#295));
#193=EDGE_LOOP('',(#296,#297,#298,#299));
#194=AXIS2_PLACEMENT_3D('',#300,#301,#302);
#195=SURFACE_SIDE_STYLE('',(#303));
#196=EDGE_LOOP('',(#304,#305,#306,#307));
#197=AXIS2_PLACEMENT_3D('',#308,#309,#310);
#198=SURFACE_SIDE_STYLE('',(#311));
#199=EDGE_LOOP('',(#312,#313,#314,#315));
#200=AXIS2_PLACEMENT_3D('',#316,#317,#318);
#201=SURFACE_SIDE_STYLE('',(#319));
#202=EDGE_LOOP('',(#320,#321,#322,#323));
#203=AXIS2_PLACEMENT_3D('',#324,#325,#326);
#204=SURFACE_SIDE_STYLE('',(#327));
#205=EDGE_LOOP('',(#328,#329));
#206=EDGE_LOOP('',(#330,#331));
#207=AXIS2_PLACEMENT_3D('',#332,#333,#334);
#208=SURFACE_SIDE_STYLE('',(#335));
#209=EDGE_LOOP('',(#336,#337,#338,#339,#340));
#210=AXIS2_PLACEMENT_3D('',#341,#342,#343);
#211=SURFACE_SIDE_STYLE('',(#344));
#212=EDGE_LOOP('',(#345,#346,#347,#348,#349));
#213=AXIS2_PLACEMENT_3D('',#350,#351,#352);
#214=SURFACE_SIDE_STYLE('',(#353));
#215=EDGE_LOOP('',(#354,#355,#356,#357));
#216=AXIS2_PLACEMENT_3D('',#358,#359,#360);
#217=SURFACE_SIDE_STYLE('',(#361));
#218=EDGE_LOOP('',(#362,#363,#364,#365));
#219=AXIS2_PLACEMENT_3D('',#366,#367,#368);
#220=SURFACE_SIDE_STYLE('',(#369));
#221=EDGE_LOOP('',(#370,#371,#372,#373));
#222=AXIS2_PLACEMENT_3D('',#374,#375,#376);
#223=SURFACE_SIDE_STYLE('',(#377));
#225=SURFACE_STYLE_FILL_AREA(#378);
#226=ORIENTED_EDGE('',*,*,#379,.F.);
#227=ORIENTED_EDGE('',*,*,#380,.T.);
#228=ORIENTED_EDGE('',*,*,#381,.F.);
#229=ORIENTED_EDGE('',*,*,#382,.F.);
#230=CARTESIAN_POINT('',(-9.55236098554302E-011,1.56290995770303E-011,0.10108270819461));
#231=DIRECTION('',(-2.11518289531733E-009,3.28639826405621E-010,-1.0));
#232=DIRECTION('',(1.0,5.66553889764798E-016,-2.11518289531733E-009));
#233=SURFACE_STYLE_FILL_AREA(#383);
#234=ORIENTED_EDGE('',*,*,#384,.F.);
#235=ORIENTED_EDGE('',*,*,#385,.F.);
#236=ORIENTED_EDGE('',*,*,#386,.F.);
#237=ORIENTED_EDGE('',*,*,#387,.T.);
#238=CARTESIAN_POINT('',(7.32478452891705E-011,-1.23010161084958E-011,0.101082708213611));
#239=DIRECTION('',(1.62156058225264E-009,-2.58514998796724E-010,-1.0));
#240=DIRECTION('',(-1.0,-2.44929359829471E-016,-1.62156058225264E-009));
#241=SURFACE_STYLE_FILL_AREA(#388);
#242=ORIENTED_EDGE('',*,*,#389,.F.);
#243=ORIENTED_EDGE('',*,*,#390,.T.);
#244=CARTESIAN_POINT('',(-4.754172E-015,0.0,14.5));
#245=DIRECTION('',(0.0,0.0,1.0));
#246=DIRECTION('',(1.0,-0.0,0.0));
#247=SURFACE_STYLE_FILL_AREA(#391);
#248=ORIENTED_EDGE('',*,*,#392,.T.);
#249=ORIENTED_EDGE('',*,*,#393,.F.);
#250=ORIENTED_EDGE('',*,*,#390,.F.);
#251=ORIENTED_EDGE('',*,*,#394,.T.);
#252=CARTESIAN_POINT('',(-3.586751E-015,0.0,11.1113096041013));
#253=DIRECTION('',(3.445052E-016,-0.0,-1.0));
#254=DIRECTION('',(0.0,-1.0,0.0));
#255=SURFACE_STYLE_FILL_AREA(#395);
#256=ORIENTED_EDGE('',*,*,#389,.T.);
#257=ORIENTED_EDGE('',*,*,#393,.T.);
#258=ORIENTED_EDGE('',*,*,#396,.F.);
#259=ORIENTED_EDGE('',*,*,#394,.F.);
#260=CARTESIAN_POINT('',(-3.586751E-015,0.0,11.1113096041013));
#261=DIRECTION('',(3.445052E-016,-0.0,-1.0));
#262=DIRECTION('',(0.0,-1.0,0.0));
#263=SURFACE_STYLE_FILL_AREA(#397);
#264=ORIENTED_EDGE('',*,*,#396,.T.);
#265=ORIENTED_EDGE('',*,*,#398,.T.);
#266=ORIENTED_EDGE('',*,*,#399,.F.);
#267=ORIENTED_EDGE('',*,*,#400,.F.);
#268=CARTESIAN_POINT('',(-3.342028E-015,0.0,10.4009507083163));
#269=DIRECTION('',(3.445052E-016,-0.0,-1.0));
#270=DIRECTION('',(0.0,-1.0,0.0));
#271=SURFACE_STYLE_FILL_AREA(#401);
#272=ORIENTED_EDGE('',*,*,#402,.T.);
#273=ORIENTED_EDGE('',*,*,#398,.F.);
#274=ORIENTED_EDGE('',*,*,#392,.F.);
#275=ORIENTED_EDGE('',*,*,#400,.T.);
#276=CARTESIAN_POINT('',(-3.342028E-015,0.0,10.4009507083163));
#277=DIRECTION('',(3.445052E-016,-0.0,-1.0));
#278=DIRECTION('',(0.0,-1.0,0.0));
#279=SURFACE_STYLE_FILL_AREA(#403);
#280=ORIENTED_EDGE('',*,*,#404,.T.);
#281=ORIENTED_EDGE('',*,*,#405,.F.);
#282=ORIENTED_EDGE('',*,*,#402,.F.);
#283=ORIENTED_EDGE('',*,*,#406,.T.);
#284=CARTESIAN_POINT('',(2.227226E-015,0.0,-5.765));
#285=DIRECTION('',(3.445052E-016,0.0,-1.0));
#286=DIRECTION('',(0.0,-1.0,0.0));
#287=SURFACE_STYLE_FILL_AREA(#407);
#288=ORIENTED_EDGE('',*,*,#399,.T.);
#289=ORIENTED_EDGE('',*,*,#405,.T.);
#290=ORIENTED_EDGE('',*,*,#408,.F.);
#291=ORIENTED_EDGE('',*,*,#406,.F.);
#292=CARTESIAN_POINT('',(2.227226E-015,0.0,-5.765));
#293=DIRECTION('',(3.445052E-016,0.0,-1.0));
#294=DIRECTION('',(0.0,-1.0,0.0));
#295=SURFACE_STYLE_FILL_AREA(#409);
#296=ORIENTED_EDGE('',*,*,#408,.T.);
#297=ORIENTED_EDGE('',*,*,#410,.T.);
#298=ORIENTED_EDGE('',*,*,#411,.F.);
#299=ORIENTED_EDGE('',*,*,#412,.F.);
#300=CARTESIAN_POINT('',(1.690665E-016,0.0,0.209248347229399));
#301=DIRECTION('',(-3.445052E-016,-0.0,1.0));
#302=DIRECTION('',(0.0,-1.0,0.0));
#303=SURFACE_STYLE_FILL_AREA(#413);
#304=ORIENTED_EDGE('',*,*,#414,.T.);
#305=ORIENTED_EDGE('',*,*,#410,.F.);
#306=ORIENTED_EDGE('',*,*,#404,.F.);
#307=ORIENTED_EDGE('',*,*,#412,.T.);
#308=CARTESIAN_POINT('',(1.690665E-016,0.0,0.209248347229399));
#309=DIRECTION('',(-3.445052E-016,-0.0,1.0));
#310=DIRECTION('',(0.0,-1.0,0.0));
#311=SURFACE_STYLE_FILL_AREA(#415);
#312=ORIENTED_EDGE('',*,*,#416,.T.);
#313=ORIENTED_EDGE('',*,*,#417,.F.);
#314=ORIENTED_EDGE('',*,*,#414,.F.);
#315=ORIENTED_EDGE('',*,*,#418,.T.);
#316=CARTESIAN_POINT('',(2.227226E-015,0.0,-5.765));
#317=DIRECTION('',(3.445052E-016,0.0,-1.0));
#318=DIRECTION('',(0.0,-1.0,0.0));
#319=SURFACE_STYLE_FILL_AREA(#419);
#320=ORIENTED_EDGE('',*,*,#411,.T.);
#321=ORIENTED_EDGE('',*,*,#417,.T.);
#322=ORIENTED_EDGE('',*,*,#420,.F.);
#323=ORIENTED_EDGE('',*,*,#418,.F.);
#324=CARTESIAN_POINT('',(2.227226E-015,0.0,-5.765));
#325=DIRECTION('',(3.445052E-016,0.0,-1.0));
#326=DIRECTION('',(0.0,-1.0,0.0));
#327=SURFACE_STYLE_FILL_AREA(#421);
#328=ORIENTED_EDGE('',*,*,#422,.F.);
#329=ORIENTED_EDGE('',*,*,#423,.T.);
#330=ORIENTED_EDGE('',*,*,#416,.F.);
#331=ORIENTED_EDGE('',*,*,#420,.T.);
#332=CARTESIAN_POINT('',(7.579115E-016,0.0,-1.5));
#333=DIRECTION('',(0.0,0.0,1.0));
#334=DIRECTION('',(1.0,-0.0,0.0));
#335=SURFACE_STYLE_FILL_AREA(#424);
#336=ORIENTED_EDGE('',*,*,#425,.T.);
#337=ORIENTED_EDGE('',*,*,#382,.T.);
#338=ORIENTED_EDGE('',*,*,#426,.F.);
#339=ORIENTED_EDGE('',*,*,#423,.F.);
#340=ORIENTED_EDGE('',*,*,#427,.T.);
#341=CARTESIAN_POINT('',(2.227226E-015,0.0,-5.765));
#342=DIRECTION('',(3.445052E-016,0.0,-1.0));
#343=DIRECTION('',(0.0,-1.0,0.0));
#344=SURFACE_STYLE_FILL_AREA(#428);
#345=ORIENTED_EDGE('',*,*,#422,.T.);
#346=ORIENTED_EDGE('',*,*,#426,.T.);
#347=ORIENTED_EDGE('',*,*,#429,.F.);
#348=ORIENTED_EDGE('',*,*,#387,.F.);
#349=ORIENTED_EDGE('',*,*,#427,.F.);
#350=CARTESIAN_POINT('',(2.227226E-015,0.0,-5.765));
#351=DIRECTION('',(3.445052E-016,0.0,-1.0));
#352=DIRECTION('',(0.0,-1.0,0.0));
#353=SURFACE_STYLE_FILL_AREA(#430);
#354=ORIENTED_EDGE('',*,*,#384,.T.);
#355=ORIENTED_EDGE('',*,*,#429,.T.);
#356=ORIENTED_EDGE('',*,*,#381,.T.);
#357=ORIENTED_EDGE('',*,*,#431,.F.);
#358=CARTESIAN_POINT('',(7.32478452891705E-011,-1.23010161084958E-011,0.101082708213611));
#359=DIRECTION('',(1.62156058225264E-009,-2.58514998796724E-010,-1.0));
#360=DIRECTION('',(-1.0,-2.44929359829471E-016,-1.62156058225264E-009));
#361=SURFACE_STYLE_FILL_AREA(#432);
#362=ORIENTED_EDGE('',*,*,#379,.T.);
#363=ORIENTED_EDGE('',*,*,#425,.F.);
#364=ORIENTED_EDGE('',*,*,#386,.T.);
#365=ORIENTED_EDGE('',*,*,#433,.T.);
#366=CARTESIAN_POINT('',(-9.55236098554302E-011,1.56290995770303E-011,0.10108270819461));
#367=DIRECTION('',(-2.11518289531733E-009,3.28639826405621E-010,-1.0));
#368=DIRECTION('',(1.0,5.66553889764798E-016,-2.11518289531733E-009));
#369=SURFACE_STYLE_FILL_AREA(#434);
#370=ORIENTED_EDGE('',*,*,#433,.F.);
#371=ORIENTED_EDGE('',*,*,#385,.T.);
#372=ORIENTED_EDGE('',*,*,#431,.T.);
#373=ORIENTED_EDGE('',*,*,#380,.F.);
#374=CARTESIAN_POINT('',(1.894779E-015,0.0,-4.8));
#375=DIRECTION('',(0.0,0.0,1.0));
#376=DIRECTION('',(1.0,-0.0,0.0));
#377=SURFACE_STYLE_FILL_AREA(#435);
#378=FILL_AREA_STYLE('',(#436));
#379=EDGE_CURVE('',#437,#438,#439,.T.);
#380=EDGE_CURVE('',#437,#440,#441,.T.);
#381=EDGE_CURVE('',#442,#440,#443,.T.);
#382=EDGE_CURVE('',#438,#442,#444,.T.);
#383=FILL_AREA_STYLE('',(#445));
#384=EDGE_CURVE('',#446,#447,#448,.T.);
#385=EDGE_CURVE('',#449,#446,#450,.T.);
#386=EDGE_CURVE('',#451,#449,#452,.T.);
#387=EDGE_CURVE('',#451,#447,#453,.T.);
#388=FILL_AREA_STYLE('',(#454));
#389=EDGE_CURVE('',#455,#456,#457,.T.);
#390=EDGE_CURVE('',#455,#456,#458,.T.);
#391=FILL_AREA_STYLE('',(#459));
#392=EDGE_CURVE('',#460,#461,#462,.T.);
#393=EDGE_CURVE('',#456,#461,#463,.T.);
#394=EDGE_CURVE('',#455,#460,#464,.T.);
#395=FILL_AREA_STYLE('',(#465));
#396=EDGE_CURVE('',#460,#461,#466,.T.);
#397=FILL_AREA_STYLE('',(#467));
#398=EDGE_CURVE('',#461,#468,#469,.T.);
#399=EDGE_CURVE('',#470,#468,#471,.T.);
#400=EDGE_CURVE('',#460,#470,#472,.T.);
#401=FILL_AREA_STYLE('',(#473));
#402=EDGE_CURVE('',#470,#468,#474,.T.);
#403=FILL_AREA_STYLE('',(#475));
#404=EDGE_CURVE('',#476,#477,#478,.T.);
#405=EDGE_CURVE('',#468,#477,#479,.T.);
#406=EDGE_CURVE('',#470,#476,#480,.T.);
#407=FILL_AREA_STYLE('',(#481));
#408=EDGE_CURVE('',#476,#477,#482,.T.);
#409=FILL_AREA_STYLE('',(#483));
#410=EDGE_CURVE('',#477,#484,#485,.T.);
#411=EDGE_CURVE('',#486,#484,#487,.T.);
#412=EDGE_CURVE('',#476,#486,#488,.T.);
#413=FILL_AREA_STYLE('',(#489));
#414=EDGE_CURVE('',#486,#484,#490,.T.);
#415=FILL_AREA_STYLE('',(#491));
#416=EDGE_CURVE('',#492,#493,#494,.T.);
#417=EDGE_CURVE('',#484,#493,#495,.T.);
#418=EDGE_CURVE('',#486,#492,#496,.T.);
#419=FILL_AREA_STYLE('',(#497));
#420=EDGE_CURVE('',#492,#493,#498,.T.);
#421=FILL_AREA_STYLE('',(#499));
#422=EDGE_CURVE('',#500,#501,#502,.T.);
#423=EDGE_CURVE('',#500,#501,#503,.T.);
#424=FILL_AREA_STYLE('',(#504));
#425=EDGE_CURVE('',#451,#438,#505,.T.);
#426=EDGE_CURVE('',#501,#442,#506,.T.);
#427=EDGE_CURVE('',#500,#451,#507,.T.);
#428=FILL_AREA_STYLE('',(#508));
#429=EDGE_CURVE('',#447,#442,#509,.T.);
#430=FILL_AREA_STYLE('',(#510));
#431=EDGE_CURVE('',#446,#440,#511,.T.);
#432=FILL_AREA_STYLE('',(#512));
#433=EDGE_CURVE('',#449,#437,#513,.T.);
#434=FILL_AREA_STYLE('',(#514));
#435=FILL_AREA_STYLE('',(#515));
#436=FILL_AREA_STYLE_COLOUR('',#516);
#437=VERTEX_POINT('',#517);
#438=VERTEX_POINT('',#518);
#439=CIRCLE('',#519,5.60000000000863);
#440=VERTEX_POINT('',#520);
#441=CIRCLE('',#521,2.75);
#442=VERTEX_POINT('',#522);
#443=CIRCLE('',#523,5.6);
#444=CIRCLE('',#524,5.1);
#445=FILL_AREA_STYLE_COLOUR('',#525);
#446=VERTEX_POINT('',#526);
#447=VERTEX_POINT('',#527);
#448=CIRCLE('',#528,5.60000000000701);
#449=VERTEX_POINT('',#529);
#450=CIRCLE('',#530,2.75);
#451=VERTEX_POINT('',#531);
#452=CIRCLE('',#532,5.6);
#453=CIRCLE('',#533,5.1);
#454=FILL_AREA_STYLE_COLOUR('',#534);
#455=VERTEX_POINT('',#535);
#456=VERTEX_POINT('',#536);
#457=CIRCLE('',#537,2.25);
#458=CIRCLE('',#538,2.25);
#459=FILL_AREA_STYLE_COLOUR('',#539);
#460=VERTEX_POINT('',#540);
#461=VERTEX_POINT('',#541);
#462=CIRCLE('',#542,2.5);
#463=LINE('',#543,#544);
#464=LINE('',#545,#546);
#465=FILL_AREA_STYLE_COLOUR('',#547);
#466=CIRCLE('',#548,2.5);
#467=FILL_AREA_STYLE_COLOUR('',#549);
#468=VERTEX_POINT('',#550);
#469=LINE('',#551,#552);
#470=VERTEX_POINT('',#553);
#471=CIRCLE('',#554,3.0);
#472=LINE('',#555,#556);
#473=FILL_AREA_STYLE_COLOUR('',#557);
#474=CIRCLE('',#558,3.0);
#475=FILL_AREA_STYLE_COLOUR('',#559);
#476=VERTEX_POINT('',#560);
#477=VERTEX_POINT('',#561);
#478=CIRCLE('',#562,3.0);
#479=LINE('',#563,#564);
#480=LINE('',#565,#566);
#481=FILL_AREA_STYLE_COLOUR('',#567);
#482=CIRCLE('',#568,3.0);
#483=FILL_AREA_STYLE_COLOUR('',#569);
#484=VERTEX_POINT('',#570);
#485=LINE('',#571,#572);
#486=VERTEX_POINT('',#573);
#487=CIRCLE('',#574,2.5);
#488=LINE('',#575,#576);
#489=FILL_AREA_STYLE_COLOUR('',#577);
#490=CIRCLE('',#578,2.5);
#491=FILL_AREA_STYLE_COLOUR('',#579);
#492=VERTEX_POINT('',#580);
#493=VERTEX_POINT('',#581);
#494=CIRCLE('',#582,2.5);
#495=LINE('',#583,#584);
#496=LINE('',#585,#586);
#497=FILL_AREA_STYLE_COLOUR('',#587);
#498=CIRCLE('',#588,2.5);
#499=FILL_AREA_STYLE_COLOUR('',#589);
#500=VERTEX_POINT('',#590);
#501=VERTEX_POINT('',#591);
#502=CIRCLE('',#592,5.1);
#503=CIRCLE('',#593,5.1);
#504=FILL_AREA_STYLE_COLOUR('',#594);
#505=CIRCLE('',#595,5.1);
#506=LINE('',#596,#597);
#507=LINE('',#598,#599);
#508=FILL_AREA_STYLE_COLOUR('',#600);
#509=CIRCLE('',#601,5.1);
#510=FILL_AREA_STYLE_COLOUR('',#602);
#511=CIRCLE('',#603,2.75);
#512=FILL_AREA_STYLE_COLOUR('',#604);
#513=CIRCLE('',#605,2.75);
#514=FILL_AREA_STYLE_COLOUR('',#606);
#515=FILL_AREA_STYLE_COLOUR('',#607);
#516=COLOUR_RGB('',0.752941191196442,0.752941191196442,0.752941191196442);
#517=CARTESIAN_POINT('',(-2.75,1.62631817710826E-009,-4.8));
#518=CARTESIAN_POINT('',(-5.1,8.04716993534124E-010,-2.3));
#519=AXIS2_PLACEMENT_3D('',#608,#609,#610);
#520=CARTESIAN_POINT('',(2.568312E-015,-2.75,-4.8));
#521=AXIS2_PLACEMENT_3D('',#611,#612,#613);
#522=CARTESIAN_POINT('',(1.658065E-015,-5.1,-2.3));
#523=AXIS2_PLACEMENT_3D('',#614,#615,#616);
#524=AXIS2_PLACEMENT_3D('',#617,#618,#619);
#525=COLOUR_RGB('',0.752941191196442,0.752941191196442,0.752941191196442);
#526=CARTESIAN_POINT('',(2.75,-1.27930339734417E-009,-4.8));
#527=CARTESIAN_POINT('',(5.1,-6.3301503796148E-010,-2.3));
#528=AXIS2_PLACEMENT_3D('',#620,#621,#622);
#529=CARTESIAN_POINT('',(1.558012E-015,2.75,-4.8));
#530=AXIS2_PLACEMENT_3D('',#623,#624,#625);
#531=CARTESIAN_POINT('',(4.089665E-016,5.1,-2.3));
#532=AXIS2_PLACEMENT_3D('',#626,#627,#628);
#533=AXIS2_PLACEMENT_3D('',#629,#630,#631);
#534=COLOUR_RGB('',0.752941191196442,0.752941191196442,0.752941191196442);
#535=CARTESIAN_POINT('',(-4.937863E-015,2.25,14.5));
#536=CARTESIAN_POINT('',(-4.570481E-015,-2.25,14.5));
#537=AXIS2_PLACEMENT_3D('',#632,#633,#634);
#538=AXIS2_PLACEMENT_3D('',#635,#636,#637);
#539=COLOUR_RGB('',0.752941191196442,0.752941191196442,0.752941191196442);
#540=CARTESIAN_POINT('',(-3.934124E-015,2.5,11.2309650149714));
#541=CARTESIAN_POINT('',(-3.321821E-015,-2.5,11.2309650149714));
#542=AXIS2_PLACEMENT_3D('',#638,#639,#640);
#543=CARTESIAN_POINT('',(-4.570481E-015,-2.25,14.5));
#544=VECTOR('',#641,3.27858044484821);
#545=CARTESIAN_POINT('',(-4.937863E-015,2.25,14.5));
#546=VECTOR('',#642,3.27858044484821);
#547=COLOUR_RGB('',0.752941191196442,0.752941191196442,0.752941191196442);
#548=AXIS2_PLACEMENT_3D('',#643,#644,#645);
#549=COLOUR_RGB('',0.752941191196442,0.752941191196442,0.752941191196442);
#550=CARTESIAN_POINT('',(-3.008769E-015,-3.0,10.5));
#551=CARTESIAN_POINT('',(-3.321821E-015,-2.5,11.2309650149714));
#552=VECTOR('',#646,0.885612699272162);
#553=CARTESIAN_POINT('',(-3.743533E-015,3.0,10.5));
#554=AXIS2_PLACEMENT_3D('',#647,#648,#649);
#555=CARTESIAN_POINT('',(-3.934124E-015,2.5,11.2309650149714));
#556=VECTOR('',#650,0.885612699272162);
#557=COLOUR_RGB('',0.752941191196442,0.752941191196442,0.752941191196442);
#558=AXIS2_PLACEMENT_3D('',#651,#652,#653);
#559=COLOUR_RGB('',0.752941191196442,0.752941191196442,0.752941191196442);
#560=CARTESIAN_POINT('',(-1.606788E-016,3.0,0.100000000000002));
#561=CARTESIAN_POINT('',(5.740851E-016,-3.0,0.100000000000002));
#562=AXIS2_PLACEMENT_3D('',#654,#655,#656);
#563=CARTESIAN_POINT('',(-3.008769E-015,-3.0,10.5));
#564=VECTOR('',#657,10.4);
#565=CARTESIAN_POINT('',(-3.743533E-015,3.0,10.5));
#566=VECTOR('',#658,10.4);
#567=COLOUR_RGB('',0.752941191196442,0.752941191196442,0.752941191196442);
#568=AXIS2_PLACEMENT_3D('',#659,#660,#661);
#569=COLOUR_RGB('',0.752941191196442,0.752941191196442,0.752941191196442);
#570=CARTESIAN_POINT('',(8.918105E-016,-2.5,-1.0));
#571=CARTESIAN_POINT('',(5.740851E-016,-3.0,0.100000000000002));
#572=VECTOR('',#662,1.20830459735946);
#573=CARTESIAN_POINT('',(2.795073E-016,2.5,-1.0));
#574=AXIS2_PLACEMENT_3D('',#663,#664,#665);
#575=CARTESIAN_POINT('',(-1.606788E-016,3.0,0.100000000000002));
#576=VECTOR('',#666,1.20830459735946);
#577=COLOUR_RGB('',0.752941191196442,0.752941191196442,0.752941191196442);
#578=AXIS2_PLACEMENT_3D('',#667,#668,#669);
#579=COLOUR_RGB('',0.752941191196442,0.752941191196442,0.752941191196442);
#580=CARTESIAN_POINT('',(5.538105E-016,2.5,-1.5));
#581=CARTESIAN_POINT('',(9.620126E-016,-2.5,-1.5));
#582=AXIS2_PLACEMENT_3D('',#670,#671,#672);
#583=CARTESIAN_POINT('',(8.918105E-016,-2.5,-1.0));
#584=VECTOR('',#673,0.5);
#585=CARTESIAN_POINT('',(2.795073E-016,2.5,-1.0));
#586=VECTOR('',#674,0.5);
#587=COLOUR_RGB('',0.752941191196442,0.752941191196442,0.752941191196442);
#588=AXIS2_PLACEMENT_3D('',#675,#676,#677);
#589=COLOUR_RGB('',0.752941191196442,0.752941191196442,0.752941191196442);
#590=CARTESIAN_POINT('',(3.415454E-016,5.1,-1.5));
#591=CARTESIAN_POINT('',(1.174278E-015,-5.1,-1.5));
#592=AXIS2_PLACEMENT_3D('',#678,#679,#680);
#593=AXIS2_PLACEMENT_3D('',#681,#682,#683);
#594=COLOUR_RGB('',0.752941191196442,0.752941191196442,0.752941191196442);
#595=AXIS2_PLACEMENT_3D('',#684,#685,#686);
#596=CARTESIAN_POINT('',(1.174278E-015,-5.1,-1.5));
#597=VECTOR('',#687,0.800000000000001);
#598=CARTESIAN_POINT('',(3.415454E-016,5.1,-1.5));
#599=VECTOR('',#688,0.800000000000001);
#600=COLOUR_RGB('',0.752941191196442,0.752941191196442,0.752941191196442);
#601=AXIS2_PLACEMENT_3D('',#689,#690,#691);
#602=COLOUR_RGB('',0.752941191196442,0.752941191196442,0.752941191196442);
#603=AXIS2_PLACEMENT_3D('',#692,#693,#694);
#604=COLOUR_RGB('',0.752941191196442,0.752941191196442,0.752941191196442);
#605=AXIS2_PLACEMENT_3D('',#695,#696,#697);
#606=COLOUR_RGB('',0.752941191196442,0.752941191196442,0.752941191196442);
#607=COLOUR_RGB('',0.752941012382507,0.752941012382507,0.752941012382507);
#608=CARTESIAN_POINT('',(-0.0408694592763159,1.5629071417214E-011,0.101082708281056));
#609=DIRECTION('',(-6.88323436340318E-016,1.0,3.28639826405623E-010));
#610=DIRECTION('',(-1.0,-6.89018569679851E-016,2.11518289531733E-009));
#611=CARTESIAN_POINT('',(1.894779E-015,0.0,-4.8));
#612=DIRECTION('',(0.0,-0.0,1.0));
#613=DIRECTION('',(0.0,1.0,0.0));
#614=CARTESIAN_POINT('',(2.163399E-016,-0.040869459282167,0.101082708274764));
#615=DIRECTION('',(1.0,3.33340231983802E-016,1.58204567719252E-016));
#616=DIRECTION('',(3.689775E-016,-0.903416167985328,-0.428764769334779));
#617=CARTESIAN_POINT('',(1.033516E-015,0.0,-2.3));
#618=DIRECTION('',(0.0,-0.0,1.0));
#619=DIRECTION('',(0.0,1.0,0.0));
#620=CARTESIAN_POINT('',(0.0408694592774244,-1.23010010933E-011,0.101082708279884));
#621=DIRECTION('',(3.66974842012093E-016,-1.0,2.58514998796725E-010));
#622=DIRECTION('',(1.0,3.67394039744063E-016,1.62156058225264E-009));
#623=CARTESIAN_POINT('',(1.894779E-015,0.0,-4.8));
#624=DIRECTION('',(0.0,0.0,-1.0));
#625=DIRECTION('',(0.0,1.0,0.0));
#626=CARTESIAN_POINT('',(2.013252E-016,0.040869459282167,0.101082708274764));
#627=DIRECTION('',(-1.0,3.34975782252861E-017,-1.5898079157714E-017));
#628=DIRECTION('',(3.707879E-017,0.903416167985328,-0.428764769334779));
#629=CARTESIAN_POINT('',(1.033516E-015,0.0,-2.3));
#630=DIRECTION('',(0.0,0.0,-1.0));
#631=DIRECTION('',(0.0,1.0,0.0));
#632=CARTESIAN_POINT('',(-4.754172E-015,0.0,14.5));
#633=DIRECTION('',(0.0,0.0,-1.0));
#634=DIRECTION('',(0.0,1.0,0.0));
#635=CARTESIAN_POINT('',(-4.754172E-015,0.0,14.5));
#636=DIRECTION('',(0.0,-0.0,1.0));
#637=DIRECTION('',(0.0,1.0,0.0));
#638=CARTESIAN_POINT('',(-3.627973E-015,0.0,11.2309650149714));
#639=DIRECTION('',(0.0,-0.0,1.0));
#640=DIRECTION('',(0.0,1.0,0.0));
#641=DIRECTION('',(3.80854E-016,-0.076252513612358,-0.997088538780683));
#642=DIRECTION('',(3.061505E-016,0.076252513612358,-0.997088538780683));
#643=CARTESIAN_POINT('',(-3.627973E-015,0.0,11.2309650149714));
#644=DIRECTION('',(0.0,0.0,-1.0));
#645=DIRECTION('',(0.0,1.0,0.0));
#646=DIRECTION('',(3.534859E-016,-0.564580883281059,-0.8253777476002));
#647=CARTESIAN_POINT('',(-3.376151E-015,0.0,10.5));
#648=DIRECTION('',(0.0,0.0,-1.0));
#649=DIRECTION('',(0.0,1.0,0.0));
#650=DIRECTION('',(2.15208E-016,0.564580883281059,-0.8253777476002));
#651=CARTESIAN_POINT('',(-3.376151E-015,0.0,10.5));
#652=DIRECTION('',(0.0,-0.0,1.0));
#653=DIRECTION('',(0.0,1.0,0.0));
#654=CARTESIAN_POINT('',(2.067031E-016,0.0,0.099999999999999));
#655=DIRECTION('',(0.0,-0.0,1.0));
#656=DIRECTION('',(0.0,1.0,0.0));
#657=DIRECTION('',(0.0,0.0,-1.0));
#658=DIRECTION('',(0.0,0.0,-1.0));
#659=CARTESIAN_POINT('',(2.067031E-016,0.0,0.099999999999999));
#660=DIRECTION('',(0.0,0.0,-1.0));
#661=DIRECTION('',(0.0,1.0,0.0));
#662=DIRECTION('',(2.629515E-016,0.413802944301181,-0.910366477462606));
#663=CARTESIAN_POINT('',(5.856589E-016,0.0,-1.0));
#664=DIRECTION('',(0.0,0.0,-1.0));
#665=DIRECTION('',(0.0,1.0,0.0));
#666=DIRECTION('',(3.643006E-016,-0.413802944301181,-0.910366477462606));
#667=CARTESIAN_POINT('',(5.856589E-016,0.0,-1.0));
#668=DIRECTION('',(0.0,-0.0,1.0));
#669=DIRECTION('',(0.0,1.0,0.0));
#670=CARTESIAN_POINT('',(7.579115E-016,0.0,-1.5));
#671=DIRECTION('',(0.0,-0.0,1.0));
#672=DIRECTION('',(0.0,1.0,0.0));
#673=DIRECTION('',(0.0,0.0,-1.0));
#674=DIRECTION('',(0.0,0.0,-1.0));
#675=CARTESIAN_POINT('',(7.579115E-016,0.0,-1.5));
#676=DIRECTION('',(0.0,0.0,-1.0));
#677=DIRECTION('',(0.0,1.0,0.0));
#678=CARTESIAN_POINT('',(7.579115E-016,0.0,-1.5));
#679=DIRECTION('',(0.0,0.0,-1.0));
#680=DIRECTION('',(0.0,1.0,0.0));
#681=CARTESIAN_POINT('',(7.579115E-016,0.0,-1.5));
#682=DIRECTION('',(0.0,-0.0,1.0));
#683=DIRECTION('',(0.0,1.0,0.0));
#684=CARTESIAN_POINT('',(1.033516E-015,0.0,-2.3));
#685=DIRECTION('',(0.0,-0.0,1.0));
#686=DIRECTION('',(0.0,1.0,0.0));
#687=DIRECTION('',(0.0,0.0,-1.0));
#688=DIRECTION('',(0.0,0.0,-1.0));
#689=CARTESIAN_POINT('',(1.033516E-015,0.0,-2.3));
#690=DIRECTION('',(0.0,0.0,-1.0));
#691=DIRECTION('',(0.0,1.0,0.0));
#692=CARTESIAN_POINT('',(1.894779E-015,0.0,-4.8));
#693=DIRECTION('',(0.0,0.0,-1.0));
#694=DIRECTION('',(0.0,1.0,0.0));
#695=CARTESIAN_POINT('',(1.894779E-015,0.0,-4.8));
#696=DIRECTION('',(0.0,-0.0,1.0));
#697=DIRECTION('',(0.0,1.0,0.0));
ENDSEC;
END-ISO-10303-21;
