ISO-10303-21;
HEADER;
FILE_DESCRIPTION(('STEP AP214'),'1');
FILE_NAME('cctmp_D0F1B00A-1E37-4D28-AFFE-20A892C47050_2020_2_11_17_11_36_218..stp','2020-02-11T16:11:36',('Bosch Rexroth AG'),('CADClick - www.CADClick.com'),'Spatial InterOp 3D',' ','unknown authorization - (Healing Option Enabled)');
FILE_SCHEMA(('AUTOMOTIVE_DESIGN'));
ENDSEC;
DATA;
#1=MECHANICAL_DESIGN_GEOMETRIC_PRESENTATION_REPRESENTATION(' ',(#10,#11,#12,#13,#14,#15,#16,#17,#18,#19,#20,#21,#22),#6);
#2=PRODUCT_DEFINITION_CONTEXT('',#23,'design');
#3=APPLICATION_PROTOCOL_DEFINITION('INTERNATIONAL STANDARD','automotive_design',1994,#23);
#4=PRODUCT_CATEGORY_RELATIONSHIP('NONE','NONE',#24,#25);
#5=SHAPE_DEFINITION_REPRESENTATION(#26,#27);
#6= (GEOMETRIC_REPRESENTATION_CONTEXT(3)GLOBAL_UNCERTAINTY_ASSIGNED_CONTEXT((#30))GLOBAL_UNIT_ASSIGNED_CONTEXT((#32,#33,#34))REPRESENTATION_CONTEXT('NONE','WORKSPACE'));
#10=STYLED_ITEM('',(#36),#37);
#11=STYLED_ITEM('',(#38),#39);
#12=STYLED_ITEM('',(#40),#41);
#13=STYLED_ITEM('',(#42),#43);
#14=STYLED_ITEM('',(#44),#45);
#15=STYLED_ITEM('',(#46),#47);
#16=STYLED_ITEM('',(#48),#49);
#17=STYLED_ITEM('',(#50),#51);
#18=STYLED_ITEM('',(#52),#53);
#19=STYLED_ITEM('',(#54),#55);
#20=STYLED_ITEM('',(#56),#57);
#21=STYLED_ITEM('',(#58),#59);
#22=STYLED_ITEM('',(#60),#61);
#23=APPLICATION_CONTEXT(' ');
#24=PRODUCT_CATEGORY('part','NONE');
#25=PRODUCT_RELATED_PRODUCT_CATEGORY('detail',' ',(#62));
#26=PRODUCT_DEFINITION_SHAPE('NONE','NONE',#63);
#27=ADVANCED_BREP_SHAPE_REPRESENTATION('2020_02_11__17-11-36-218',(#61,#64),#6);
#30=UNCERTAINTY_MEASURE_WITH_UNIT(LENGTH_MEASURE(1.0E-006),#32,'','');
#32= (CONVERSION_BASED_UNIT('MILLIMETRE',#67)LENGTH_UNIT()NAMED_UNIT(#70));
#33= (NAMED_UNIT(#72)PLANE_ANGLE_UNIT()SI_UNIT($,.RADIAN.));
#34= (NAMED_UNIT(#72)SOLID_ANGLE_UNIT()SI_UNIT($,.STERADIAN.));
#36=PRESENTATION_STYLE_ASSIGNMENT((#78));
#37=ADVANCED_FACE('',(#79),#80,.F.);
#38=PRESENTATION_STYLE_ASSIGNMENT((#81));
#39=ADVANCED_FACE('',(#82),#83,.F.);
#40=PRESENTATION_STYLE_ASSIGNMENT((#84));
#41=ADVANCED_FACE('',(#85),#86,.T.);
#42=PRESENTATION_STYLE_ASSIGNMENT((#87));
#43=ADVANCED_FACE('',(#88),#89,.T.);
#44=PRESENTATION_STYLE_ASSIGNMENT((#90));
#45=ADVANCED_FACE('',(#91),#92,.T.);
#46=PRESENTATION_STYLE_ASSIGNMENT((#93));
#47=ADVANCED_FACE('',(#94),#95,.T.);
#48=PRESENTATION_STYLE_ASSIGNMENT((#96));
#49=ADVANCED_FACE('',(#97),#98,.T.);
#50=PRESENTATION_STYLE_ASSIGNMENT((#99));
#51=ADVANCED_FACE('',(#100),#101,.T.);
#52=PRESENTATION_STYLE_ASSIGNMENT((#102));
#53=ADVANCED_FACE('',(#103),#104,.T.);
#54=PRESENTATION_STYLE_ASSIGNMENT((#105));
#55=ADVANCED_FACE('',(#106),#107,.F.);
#56=PRESENTATION_STYLE_ASSIGNMENT((#108));
#57=ADVANCED_FACE('',(#109),#110,.T.);
#58=PRESENTATION_STYLE_ASSIGNMENT((#111));
#59=ADVANCED_FACE('',(#112),#113,.F.);
#60=PRESENTATION_STYLE_ASSIGNMENT((#114));
#61=MANIFOLD_SOLID_BREP('2020_02_11__17-11-36-218',#115);
#62=PRODUCT('2020_02_11__17-11-36-218','','PART--DESC',(#116));
#63=PRODUCT_DEFINITION('','NONE',#117,#2);
#64=AXIS2_PLACEMENT_3D('',#118,#119,#120);
#67=LENGTH_MEASURE_WITH_UNIT(LENGTH_MEASURE(1.0),#121);
#70=DIMENSIONAL_EXPONENTS(1.0,0.0,0.0,0.0,0.0,0.0,0.0);
#72=DIMENSIONAL_EXPONENTS(0.0,0.0,0.0,0.0,0.0,0.0,0.0);
#78=SURFACE_STYLE_USAGE(.BOTH.,#122);
#79=FACE_OUTER_BOUND('',#123,.T.);
#80=PLANE('',#124);
#81=SURFACE_STYLE_USAGE(.BOTH.,#125);
#82=FACE_OUTER_BOUND('',#126,.T.);
#83=PLANE('',#127);
#84=SURFACE_STYLE_USAGE(.BOTH.,#128);
#85=FACE_OUTER_BOUND('',#129,.T.);
#86=CYLINDRICAL_SURFACE('',#130,21.4000000035);
#87=SURFACE_STYLE_USAGE(.BOTH.,#131);
#88=FACE_OUTER_BOUND('',#132,.T.);
#89=PLANE('',#133);
#90=SURFACE_STYLE_USAGE(.BOTH.,#134);
#91=FACE_OUTER_BOUND('',#135,.T.);
#92=PLANE('',#136);
#93=SURFACE_STYLE_USAGE(.BOTH.,#137);
#94=FACE_OUTER_BOUND('',#138,.T.);
#95=PLANE('',#139);
#96=SURFACE_STYLE_USAGE(.BOTH.,#140);
#97=FACE_OUTER_BOUND('',#141,.T.);
#98=PLANE('',#142);
#99=SURFACE_STYLE_USAGE(.BOTH.,#143);
#100=FACE_OUTER_BOUND('',#144,.T.);
#101=PLANE('',#145);
#102=SURFACE_STYLE_USAGE(.BOTH.,#146);
#103=FACE_OUTER_BOUND('',#147,.T.);
#104=PLANE('',#148);
#105=SURFACE_STYLE_USAGE(.BOTH.,#149);
#106=FACE_OUTER_BOUND('',#150,.T.);
#107=CYLINDRICAL_SURFACE('',#151,15.4);
#108=SURFACE_STYLE_USAGE(.BOTH.,#152);
#109=FACE_OUTER_BOUND('',#153,.T.);
#110=PLANE('',#154);
#111=SURFACE_STYLE_USAGE(.BOTH.,#155);
#112=FACE_OUTER_BOUND('',#156,.T.);
#113=PLANE('',#157);
#114=SURFACE_STYLE_USAGE(.BOTH.,#158);
#115=CLOSED_SHELL('',(#37,#39,#41,#43,#45,#47,#49,#51,#53,#55,#57,#59));
#116=PRODUCT_CONTEXT('',#23,'mechanical');
#117=PRODUCT_DEFINITION_FORMATION_WITH_SPECIFIED_SOURCE(' ','NONE',#62,.NOT_KNOWN.);
#118=CARTESIAN_POINT('',(0.0,0.0,0.0));
#119=DIRECTION('',(0.0,0.0,1.0));
#120=DIRECTION('',(1.0,0.0,0.0));
#121= (NAMED_UNIT(#70)LENGTH_UNIT()SI_UNIT(.MILLI.,.METRE.));
#122=SURFACE_SIDE_STYLE('',(#160));
#123=EDGE_LOOP('',(#161,#162,#163,#164));
#124=AXIS2_PLACEMENT_3D('',#165,#166,#167);
#125=SURFACE_SIDE_STYLE('',(#168));
#126=EDGE_LOOP('',(#169,#170,#171,#172));
#127=AXIS2_PLACEMENT_3D('',#173,#174,#175);
#128=SURFACE_SIDE_STYLE('',(#176));
#129=EDGE_LOOP('',(#177,#178,#179,#180));
#130=AXIS2_PLACEMENT_3D('',#181,#182,#183);
#131=SURFACE_SIDE_STYLE('',(#184));
#132=EDGE_LOOP('',(#185,#186,#187,#188));
#133=AXIS2_PLACEMENT_3D('',#189,#190,#191);
#134=SURFACE_SIDE_STYLE('',(#192));
#135=EDGE_LOOP('',(#193,#194,#195,#196));
#136=AXIS2_PLACEMENT_3D('',#197,#198,#199);
#137=SURFACE_SIDE_STYLE('',(#200));
#138=EDGE_LOOP('',(#201,#202,#203,#204));
#139=AXIS2_PLACEMENT_3D('',#205,#206,#207);
#140=SURFACE_SIDE_STYLE('',(#208));
#141=EDGE_LOOP('',(#209,#210,#211,#212,#213));
#142=AXIS2_PLACEMENT_3D('',#214,#215,#216);
#143=SURFACE_SIDE_STYLE('',(#217));
#144=EDGE_LOOP('',(#218,#219,#220,#221,#222));
#145=AXIS2_PLACEMENT_3D('',#223,#224,#225);
#146=SURFACE_SIDE_STYLE('',(#226));
#147=EDGE_LOOP('',(#227,#228,#229,#230));
#148=AXIS2_PLACEMENT_3D('',#231,#232,#233);
#149=SURFACE_SIDE_STYLE('',(#234));
#150=EDGE_LOOP('',(#235,#236,#237,#238));
#151=AXIS2_PLACEMENT_3D('',#239,#240,#241);
#152=SURFACE_SIDE_STYLE('',(#242));
#153=EDGE_LOOP('',(#243,#244,#245,#246,#247,#248,#249,#250));
#154=AXIS2_PLACEMENT_3D('',#251,#252,#253);
#155=SURFACE_SIDE_STYLE('',(#254));
#156=EDGE_LOOP('',(#255,#256,#257,#258,#259,#260));
#157=AXIS2_PLACEMENT_3D('',#261,#262,#263);
#158=SURFACE_SIDE_STYLE('',(#264));
#160=SURFACE_STYLE_FILL_AREA(#265);
#161=ORIENTED_EDGE('',*,*,#266,.F.);
#162=ORIENTED_EDGE('',*,*,#267,.F.);
#163=ORIENTED_EDGE('',*,*,#268,.T.);
#164=ORIENTED_EDGE('',*,*,#269,.T.);
#165=CARTESIAN_POINT('',(-10.0,-55.75,6.0));
#166=DIRECTION('',(0.0,0.0,-1.0));
#167=DIRECTION('',(-0.0,1.0,0.0));
#168=SURFACE_STYLE_FILL_AREA(#270);
#169=ORIENTED_EDGE('',*,*,#271,.F.);
#170=ORIENTED_EDGE('',*,*,#272,.F.);
#171=ORIENTED_EDGE('',*,*,#273,.T.);
#172=ORIENTED_EDGE('',*,*,#274,.T.);
#173=CARTESIAN_POINT('',(-10.0,-6.0,67.5208324899929));
#174=DIRECTION('',(0.0,1.0,0.0));
#175=DIRECTION('',(0.0,0.0,1.0));
#176=SURFACE_STYLE_FILL_AREA(#275);
#177=ORIENTED_EDGE('',*,*,#276,.F.);
#178=ORIENTED_EDGE('',*,*,#274,.F.);
#179=ORIENTED_EDGE('',*,*,#277,.T.);
#180=ORIENTED_EDGE('',*,*,#267,.T.);
#181=CARTESIAN_POINT('',(-10.0,-8.88178419700125E-015,7.105427357601E-015));
#182=DIRECTION('',(1.0,0.0,0.0));
#183=DIRECTION('',(0.0,-0.280373831729167,0.959890886758232));
#184=SURFACE_STYLE_FILL_AREA(#278);
#185=ORIENTED_EDGE('',*,*,#277,.F.);
#186=ORIENTED_EDGE('',*,*,#273,.F.);
#187=ORIENTED_EDGE('',*,*,#279,.F.);
#188=ORIENTED_EDGE('',*,*,#268,.F.);
#189=CARTESIAN_POINT('',(-10.0,-22.2357232598801,53.0636444448021));
#190=DIRECTION('',(1.0,0.0,-0.0));
#191=DIRECTION('',(0.0,0.0,1.0));
#192=SURFACE_STYLE_FILL_AREA(#280);
#193=ORIENTED_EDGE('',*,*,#279,.T.);
#194=ORIENTED_EDGE('',*,*,#281,.F.);
#195=ORIENTED_EDGE('',*,*,#282,.F.);
#196=ORIENTED_EDGE('',*,*,#283,.T.);
#197=CARTESIAN_POINT('',(-14.0,-31.5,61.5));
#198=DIRECTION('',(0.0,-0.908676843963313,0.417500171550711));
#199=DIRECTION('',(0.0,-0.417500171550711,-0.908676843963313));
#200=SURFACE_STYLE_FILL_AREA(#284);
#201=ORIENTED_EDGE('',*,*,#285,.T.);
#202=ORIENTED_EDGE('',*,*,#286,.F.);
#203=ORIENTED_EDGE('',*,*,#287,.F.);
#204=ORIENTED_EDGE('',*,*,#288,.T.);
#205=CARTESIAN_POINT('',(-14.0,-55.75,0.0));
#206=DIRECTION('',(0.0,0.0,-1.0));
#207=DIRECTION('',(-0.0,1.0,0.0));
#208=SURFACE_STYLE_FILL_AREA(#289);
#209=ORIENTED_EDGE('',*,*,#290,.T.);
#210=ORIENTED_EDGE('',*,*,#269,.F.);
#211=ORIENTED_EDGE('',*,*,#283,.F.);
#212=ORIENTED_EDGE('',*,*,#291,.F.);
#213=ORIENTED_EDGE('',*,*,#286,.T.);
#214=CARTESIAN_POINT('',(-14.0,-57.0,3.0));
#215=DIRECTION('',(0.0,-1.0,0.0));
#216=DIRECTION('',(0.0,0.0,-1.0));
#217=SURFACE_STYLE_FILL_AREA(#292);
#218=ORIENTED_EDGE('',*,*,#293,.T.);
#219=ORIENTED_EDGE('',*,*,#294,.F.);
#220=ORIENTED_EDGE('',*,*,#295,.F.);
#221=ORIENTED_EDGE('',*,*,#281,.T.);
#222=ORIENTED_EDGE('',*,*,#272,.T.);
#223=CARTESIAN_POINT('',(-14.0,-3.0,117.0));
#224=DIRECTION('',(0.0,0.0,1.0));
#225=DIRECTION('',(0.0,-1.0,0.0));
#226=SURFACE_STYLE_FILL_AREA(#296);
#227=ORIENTED_EDGE('',*,*,#297,.T.);
#228=ORIENTED_EDGE('',*,*,#298,.F.);
#229=ORIENTED_EDGE('',*,*,#299,.F.);
#230=ORIENTED_EDGE('',*,*,#294,.T.);
#231=CARTESIAN_POINT('',(-14.0,0.0,64.95));
#232=DIRECTION('',(0.0,1.0,0.0));
#233=DIRECTION('',(0.0,0.0,1.0));
#234=SURFACE_STYLE_FILL_AREA(#300);
#235=ORIENTED_EDGE('',*,*,#301,.T.);
#236=ORIENTED_EDGE('',*,*,#288,.F.);
#237=ORIENTED_EDGE('',*,*,#302,.F.);
#238=ORIENTED_EDGE('',*,*,#298,.T.);
#239=CARTESIAN_POINT('',(-14.0,-4.98891618483882E-015,0.0));
#240=DIRECTION('',(1.0,0.0,-0.0));
#241=DIRECTION('',(0.0,3.23955596418105E-016,1.0));
#242=SURFACE_STYLE_FILL_AREA(#303);
#243=ORIENTED_EDGE('',*,*,#266,.T.);
#244=ORIENTED_EDGE('',*,*,#290,.F.);
#245=ORIENTED_EDGE('',*,*,#285,.F.);
#246=ORIENTED_EDGE('',*,*,#301,.F.);
#247=ORIENTED_EDGE('',*,*,#297,.F.);
#248=ORIENTED_EDGE('',*,*,#293,.F.);
#249=ORIENTED_EDGE('',*,*,#271,.T.);
#250=ORIENTED_EDGE('',*,*,#276,.T.);
#251=CARTESIAN_POINT('',(14.0,-19.7181001833103,50.3756852998599));
#252=DIRECTION('',(1.0,0.0,-0.0));
#253=DIRECTION('',(0.0,0.0,1.0));
#254=SURFACE_STYLE_FILL_AREA(#304);
#255=ORIENTED_EDGE('',*,*,#302,.T.);
#256=ORIENTED_EDGE('',*,*,#287,.T.);
#257=ORIENTED_EDGE('',*,*,#291,.T.);
#258=ORIENTED_EDGE('',*,*,#282,.T.);
#259=ORIENTED_EDGE('',*,*,#295,.T.);
#260=ORIENTED_EDGE('',*,*,#299,.T.);
#261=CARTESIAN_POINT('',(-14.0,-19.7181001833103,50.37568529986));
#262=DIRECTION('',(1.0,0.0,-0.0));
#263=DIRECTION('',(0.0,0.0,1.0));
#264=SURFACE_STYLE_FILL_AREA(#305);
#265=FILL_AREA_STYLE('',(#306));
#266=EDGE_CURVE('',#307,#308,#309,.T.);
#267=EDGE_CURVE('',#310,#307,#311,.T.);
#268=EDGE_CURVE('',#310,#312,#313,.T.);
#269=EDGE_CURVE('',#312,#308,#314,.T.);
#270=FILL_AREA_STYLE('',(#315));
#271=EDGE_CURVE('',#316,#317,#318,.T.);
#272=EDGE_CURVE('',#319,#316,#320,.T.);
#273=EDGE_CURVE('',#319,#321,#322,.T.);
#274=EDGE_CURVE('',#321,#317,#323,.T.);
#275=FILL_AREA_STYLE('',(#324));
#276=EDGE_CURVE('',#317,#307,#325,.T.);
#277=EDGE_CURVE('',#321,#310,#326,.T.);
#278=FILL_AREA_STYLE('',(#327));
#279=EDGE_CURVE('',#312,#319,#328,.T.);
#280=FILL_AREA_STYLE('',(#329));
#281=EDGE_CURVE('',#330,#319,#331,.T.);
#282=EDGE_CURVE('',#332,#330,#333,.T.);
#283=EDGE_CURVE('',#332,#312,#334,.T.);
#284=FILL_AREA_STYLE('',(#335));
#285=EDGE_CURVE('',#336,#337,#338,.T.);
#286=EDGE_CURVE('',#339,#337,#340,.T.);
#287=EDGE_CURVE('',#341,#339,#342,.T.);
#288=EDGE_CURVE('',#341,#336,#343,.T.);
#289=FILL_AREA_STYLE('',(#344));
#290=EDGE_CURVE('',#337,#308,#345,.T.);
#291=EDGE_CURVE('',#339,#332,#346,.T.);
#292=FILL_AREA_STYLE('',(#347));
#293=EDGE_CURVE('',#316,#348,#349,.T.);
#294=EDGE_CURVE('',#350,#348,#351,.T.);
#295=EDGE_CURVE('',#330,#350,#352,.T.);
#296=FILL_AREA_STYLE('',(#353));
#297=EDGE_CURVE('',#348,#354,#355,.T.);
#298=EDGE_CURVE('',#356,#354,#357,.T.);
#299=EDGE_CURVE('',#350,#356,#358,.T.);
#300=FILL_AREA_STYLE('',(#359));
#301=EDGE_CURVE('',#354,#336,#360,.T.);
#302=EDGE_CURVE('',#356,#341,#361,.T.);
#303=FILL_AREA_STYLE('',(#362));
#304=FILL_AREA_STYLE('',(#363));
#305=FILL_AREA_STYLE('',(#364));
#306=FILL_AREA_STYLE_COLOUR('',#365);
#307=VERTEX_POINT('',#366);
#308=VERTEX_POINT('',#367);
#309=LINE('',#368,#369);
#310=VERTEX_POINT('',#370);
#311=LINE('',#371,#372);
#312=VERTEX_POINT('',#373);
#313=LINE('',#374,#375);
#314=LINE('',#376,#377);
#315=FILL_AREA_STYLE_COLOUR('',#378);
#316=VERTEX_POINT('',#379);
#317=VERTEX_POINT('',#380);
#318=LINE('',#381,#382);
#319=VERTEX_POINT('',#383);
#320=LINE('',#384,#385);
#321=VERTEX_POINT('',#386);
#322=LINE('',#387,#388);
#323=LINE('',#389,#390);
#324=FILL_AREA_STYLE_COLOUR('',#391);
#325=CIRCLE('',#392,21.4000000035);
#326=CIRCLE('',#393,21.4000000035);
#327=FILL_AREA_STYLE_COLOUR('',#394);
#328=LINE('',#395,#396);
#329=FILL_AREA_STYLE_COLOUR('',#397);
#330=VERTEX_POINT('',#398);
#331=LINE('',#399,#400);
#332=VERTEX_POINT('',#401);
#333=LINE('',#402,#403);
#334=LINE('',#404,#405);
#335=FILL_AREA_STYLE_COLOUR('',#406);
#336=VERTEX_POINT('',#407);
#337=VERTEX_POINT('',#408);
#338=LINE('',#409,#410);
#339=VERTEX_POINT('',#411);
#340=LINE('',#412,#413);
#341=VERTEX_POINT('',#414);
#342=LINE('',#415,#416);
#343=LINE('',#417,#418);
#344=FILL_AREA_STYLE_COLOUR('',#419);
#345=LINE('',#420,#421);
#346=LINE('',#422,#423);
#347=FILL_AREA_STYLE_COLOUR('',#424);
#348=VERTEX_POINT('',#425);
#349=LINE('',#426,#427);
#350=VERTEX_POINT('',#428);
#351=LINE('',#429,#430);
#352=LINE('',#431,#432);
#353=FILL_AREA_STYLE_COLOUR('',#433);
#354=VERTEX_POINT('',#434);
#355=LINE('',#435,#436);
#356=VERTEX_POINT('',#437);
#357=LINE('',#438,#439);
#358=LINE('',#440,#441);
#359=FILL_AREA_STYLE_COLOUR('',#442);
#360=CIRCLE('',#443,15.4);
#361=CIRCLE('',#444,15.4);
#362=FILL_AREA_STYLE_COLOUR('',#445);
#363=FILL_AREA_STYLE_COLOUR('',#446);
#364=FILL_AREA_STYLE_COLOUR('',#447);
#365=COLOUR_RGB('',0.509803950786591,0.509803950786591,0.588235318660736);
#366=CARTESIAN_POINT('',(14.0,-20.5416649799858,5.9999999999855));
#367=CARTESIAN_POINT('',(14.0,-57.0,6.0));
#368=CARTESIAN_POINT('',(14.0,-37.7340500916552,6.0));
#369=VECTOR('',#448,1.0);
#370=CARTESIAN_POINT('',(-10.0,-20.5416649799858,5.9999999999855));
#371=CARTESIAN_POINT('',(-10.0,-20.5416649799858,5.9999999999855));
#372=VECTOR('',#449,1.0);
#373=CARTESIAN_POINT('',(-10.0,-57.0,6.0));
#374=CARTESIAN_POINT('',(-10.0,-20.54166498,6.0));
#375=VECTOR('',#450,1.0);
#376=CARTESIAN_POINT('',(-14.0,-57.0,6.0));
#377=VECTOR('',#451,1.0);
#378=COLOUR_RGB('',0.509803950786591,0.509803950786591,0.588235318660736);
#379=CARTESIAN_POINT('',(14.0,-6.0,117.0));
#380=CARTESIAN_POINT('',(14.0,-5.9999999999855,20.5416649799858));
#381=CARTESIAN_POINT('',(14.0,-6.0,58.9482588949264));
#382=VECTOR('',#452,1.0);
#383=CARTESIAN_POINT('',(-10.0,-6.0,117.0));
#384=CARTESIAN_POINT('',(-14.0,-6.0,117.0));
#385=VECTOR('',#453,1.0);
#386=CARTESIAN_POINT('',(-10.0,-5.9999999999855,20.5416649799858));
#387=CARTESIAN_POINT('',(-10.0,-6.0,117.0));
#388=VECTOR('',#454,1.0);
#389=CARTESIAN_POINT('',(-10.0,-5.9999999999855,20.5416649799858));
#390=VECTOR('',#455,1.0);
#391=COLOUR_RGB('',0.509803950786591,0.509803950786591,0.588235318660736);
#392=AXIS2_PLACEMENT_3D('',#456,#457,#458);
#393=AXIS2_PLACEMENT_3D('',#459,#460,#461);
#394=COLOUR_RGB('',0.509803950786591,0.509803950786591,0.588235318660736);
#395=CARTESIAN_POINT('',(-10.0,-32.2928503215696,59.7743845942309));
#396=VECTOR('',#462,1.0);
#397=COLOUR_RGB('',0.509803950786591,0.509803950786591,0.588235318660736);
#398=CARTESIAN_POINT('',(-14.0,-6.0,117.0));
#399=CARTESIAN_POINT('',(-14.0,-6.0,117.0));
#400=VECTOR('',#463,1.0);
#401=CARTESIAN_POINT('',(-14.0,-57.0,6.0));
#402=CARTESIAN_POINT('',(-14.0,-57.0,6.0));
#403=VECTOR('',#464,1.0);
#404=CARTESIAN_POINT('',(-14.0,-57.0,6.0));
#405=VECTOR('',#465,1.0);
#406=COLOUR_RGB('',0.509803950786591,0.509803950786591,0.588235318660736);
#407=CARTESIAN_POINT('',(14.0,-15.4,5.93189422018228E-015));
#408=CARTESIAN_POINT('',(14.0,-57.0,0.0));
#409=CARTESIAN_POINT('',(14.0,-15.4,0.0));
#410=VECTOR('',#466,1.0);
#411=CARTESIAN_POINT('',(-14.0,-57.0,0.0));
#412=CARTESIAN_POINT('',(-14.0,-57.0,0.0));
#413=VECTOR('',#467,1.0);
#414=CARTESIAN_POINT('',(-14.0,-15.4,5.93189422018228E-015));
#415=CARTESIAN_POINT('',(-14.0,-15.4,0.0));
#416=VECTOR('',#468,1.0);
#417=CARTESIAN_POINT('',(-14.0,-15.4,5.93189422018228E-015));
#418=VECTOR('',#469,1.0);
#419=COLOUR_RGB('',0.509803950786591,0.509803950786591,0.588235318660736);
#420=CARTESIAN_POINT('',(14.0,-57.0,0.0));
#421=VECTOR('',#470,1.0);
#422=CARTESIAN_POINT('',(-14.0,-57.0,0.0));
#423=VECTOR('',#471,1.0);
#424=COLOUR_RGB('',0.509803950786591,0.509803950786591,0.588235318660736);
#425=CARTESIAN_POINT('',(14.0,0.0,117.0));
#426=CARTESIAN_POINT('',(14.0,-6.0,117.0));
#427=VECTOR('',#472,1.0);
#428=CARTESIAN_POINT('',(-14.0,0.0,117.0));
#429=CARTESIAN_POINT('',(-14.0,0.0,117.0));
#430=VECTOR('',#473,1.0);
#431=CARTESIAN_POINT('',(-14.0,-6.0,117.0));
#432=VECTOR('',#474,1.0);
#433=COLOUR_RGB('',0.509803950786591,0.509803950786591,0.588235318660736);
#434=CARTESIAN_POINT('',(14.0,0.0,15.4));
#435=CARTESIAN_POINT('',(14.0,0.0,117.0));
#436=VECTOR('',#475,1.0);
#437=CARTESIAN_POINT('',(-14.0,0.0,15.4));
#438=CARTESIAN_POINT('',(-14.0,0.0,15.4));
#439=VECTOR('',#476,1.0);
#440=CARTESIAN_POINT('',(-14.0,0.0,117.0));
#441=VECTOR('',#477,1.0);
#442=COLOUR_RGB('',0.509803950786591,0.509803950786591,0.588235318660736);
#443=AXIS2_PLACEMENT_3D('',#478,#479,#480);
#444=AXIS2_PLACEMENT_3D('',#481,#482,#483);
#445=COLOUR_RGB('',0.509803950786591,0.509803950786591,0.588235318660736);
#446=COLOUR_RGB('',0.509803950786591,0.509803950786591,0.588235318660736);
#447=COLOUR_RGB('',0.509803950786591,0.509803950786591,0.588235318660736);
#448=DIRECTION('',(0.0,-1.0,0.0));
#449=DIRECTION('',(1.0,0.0,0.0));
#450=DIRECTION('',(0.0,-1.0,0.0));
#451=DIRECTION('',(1.0,0.0,0.0));
#452=DIRECTION('',(0.0,0.0,-1.0));
#453=DIRECTION('',(1.0,0.0,0.0));
#454=DIRECTION('',(0.0,0.0,-1.0));
#455=DIRECTION('',(1.0,0.0,0.0));
#456=CARTESIAN_POINT('',(14.0,-8.88178419700125E-015,7.105427357601E-015));
#457=DIRECTION('',(1.0,0.0,0.0));
#458=DIRECTION('',(0.0,-0.280373831729167,0.959890886758232));
#459=CARTESIAN_POINT('',(-10.0,-8.88178419700125E-015,7.105427357601E-015));
#460=DIRECTION('',(1.0,0.0,0.0));
#461=DIRECTION('',(0.0,-0.280373831729167,0.959890886758232));
#462=DIRECTION('',(-0.0,0.417500171550711,0.908676843963313));
#463=DIRECTION('',(1.0,0.0,0.0));
#464=DIRECTION('',(0.0,0.417500171550711,0.908676843963313));
#465=DIRECTION('',(1.0,0.0,0.0));
#466=DIRECTION('',(0.0,-1.0,0.0));
#467=DIRECTION('',(1.0,0.0,0.0));
#468=DIRECTION('',(0.0,-1.0,0.0));
#469=DIRECTION('',(1.0,0.0,0.0));
#470=DIRECTION('',(0.0,0.0,1.0));
#471=DIRECTION('',(0.0,0.0,1.0));
#472=DIRECTION('',(0.0,1.0,0.0));
#473=DIRECTION('',(1.0,0.0,0.0));
#474=DIRECTION('',(0.0,1.0,0.0));
#475=DIRECTION('',(0.0,0.0,-1.0));
#476=DIRECTION('',(1.0,0.0,0.0));
#477=DIRECTION('',(0.0,0.0,-1.0));
#478=CARTESIAN_POINT('',(14.0,-4.98891618483882E-015,0.0));
#479=DIRECTION('',(1.0,0.0,-0.0));
#480=DIRECTION('',(0.0,3.23955596418105E-016,1.0));
#481=CARTESIAN_POINT('',(-14.0,-4.98891618483882E-015,0.0));
#482=DIRECTION('',(1.0,0.0,-0.0));
#483=DIRECTION('',(0.0,3.23955596418105E-016,1.0));
ENDSEC;
END-ISO-10303-21;
