ISO-10303-21;
HEADER;
FILE_DESCRIPTION(('STEP AP214'),'1');
FILE_NAME('cctmp_2AAF44CC-55EB-4C4D-BD80-BCE99C62403F_2021_08_30_09_12_48_0052..stp','2021-08-30T07:12:48',('Bosch Rexroth AG'),('CADClick - www.CADClick.com'),'Spatial InterOp 3D',' ','unknown authorization - (Healing Option Enabled)');
FILE_SCHEMA(('AUTOMOTIVE_DESIGN'));
ENDSEC;
DATA;
#1=MECHANICAL_DESIGN_GEOMETRIC_PRESENTATION_REPRESENTATION(' ',(#10,#11,#12,#13,#14,#15,#16,#17,#18,#19,#20,#21,#22),#6);
#2=PRODUCT_DEFINITION_CONTEXT('',#23,'design');
#3=APPLICATION_PROTOCOL_DEFINITION('INTERNATIONAL STANDARD','automotive_design',1994,#23);
#4=PRODUCT_CATEGORY_RELATIONSHIP('NONE','NONE',#24,#25);
#5=SHAPE_DEFINITION_REPRESENTATION(#26,#27);
#6= (GEOMETRIC_REPRESENTATION_CONTEXT(3)GLOBAL_UNCERTAINTY_ASSIGNED_CONTEXT((#30))GLOBAL_UNIT_ASSIGNED_CONTEXT((#32,#33,#34))REPRESENTATION_CONTEXT('NONE','WORKSPACE'));
#10=STYLED_ITEM('',(#36),#37);
#11=STYLED_ITEM('',(#38),#39);
#12=STYLED_ITEM('',(#40),#41);
#13=STYLED_ITEM('',(#42),#43);
#14=STYLED_ITEM('',(#44),#45);
#15=STYLED_ITEM('',(#46),#47);
#16=STYLED_ITEM('',(#48),#49);
#17=STYLED_ITEM('',(#50),#51);
#18=STYLED_ITEM('',(#52),#53);
#19=STYLED_ITEM('',(#54),#55);
#20=STYLED_ITEM('',(#56),#57);
#21=STYLED_ITEM('',(#58),#59);
#22=STYLED_ITEM('',(#60),#61);
#23=APPLICATION_CONTEXT(' ');
#24=PRODUCT_CATEGORY('part','NONE');
#25=PRODUCT_RELATED_PRODUCT_CATEGORY('detail',' ',(#62));
#26=PRODUCT_DEFINITION_SHAPE('NONE','NONE',#63);
#27=ADVANCED_BREP_SHAPE_REPRESENTATION('2021_08_30_09_12_48_0052',(#61,#64),#6);
#30=UNCERTAINTY_MEASURE_WITH_UNIT(LENGTH_MEASURE(1.0E-006),#32,'','');
#32= (CONVERSION_BASED_UNIT('MILLIMETRE',#67)LENGTH_UNIT()NAMED_UNIT(#70));
#33= (NAMED_UNIT(#72)PLANE_ANGLE_UNIT()SI_UNIT($,.RADIAN.));
#34= (NAMED_UNIT(#72)SOLID_ANGLE_UNIT()SI_UNIT($,.STERADIAN.));
#36=PRESENTATION_STYLE_ASSIGNMENT((#78));
#37=ADVANCED_FACE('1284',(#79),#80,.T.);
#38=PRESENTATION_STYLE_ASSIGNMENT((#81));
#39=ADVANCED_FACE('1312',(#82),#83,.T.);
#40=PRESENTATION_STYLE_ASSIGNMENT((#84));
#41=ADVANCED_FACE('1286',(#85),#86,.T.);
#42=PRESENTATION_STYLE_ASSIGNMENT((#87));
#43=ADVANCED_FACE('1288',(#88,#89),#90,.F.);
#44=PRESENTATION_STYLE_ASSIGNMENT((#91));
#45=ADVANCED_FACE('1353',(#92),#93,.T.);
#46=PRESENTATION_STYLE_ASSIGNMENT((#94));
#47=ADVANCED_FACE('1371',(#95),#96,.T.);
#48=PRESENTATION_STYLE_ASSIGNMENT((#97));
#49=ADVANCED_FACE('1355',(#98,#99),#100,.F.);
#50=PRESENTATION_STYLE_ASSIGNMENT((#101));
#51=ADVANCED_FACE('1290',(#102),#103,.T.);
#52=PRESENTATION_STYLE_ASSIGNMENT((#104));
#53=ADVANCED_FACE('1316',(#105),#106,.T.);
#54=PRESENTATION_STYLE_ASSIGNMENT((#107));
#55=ADVANCED_FACE('1327',(#108),#109,.T.);
#56=PRESENTATION_STYLE_ASSIGNMENT((#110));
#57=ADVANCED_FACE('1292',(#111),#112,.F.);
#58=PRESENTATION_STYLE_ASSIGNMENT((#113));
#59=ADVANCED_FACE('1330',(#114),#115,.T.);
#60=PRESENTATION_STYLE_ASSIGNMENT((#116));
#61=MANIFOLD_SOLID_BREP('2021_08_30_09_12_48_0052',#117);
#62=PRODUCT('2021_08_30_09_12_48_0052','','PART--DESC',(#118));
#63=PRODUCT_DEFINITION('','NONE',#119,#2);
#64=AXIS2_PLACEMENT_3D('',#120,#121,#122);
#67=LENGTH_MEASURE_WITH_UNIT(LENGTH_MEASURE(1.0),#123);
#70=DIMENSIONAL_EXPONENTS(1.0,0.0,0.0,0.0,0.0,0.0,0.0);
#72=DIMENSIONAL_EXPONENTS(0.0,0.0,0.0,0.0,0.0,0.0,0.0);
#78=SURFACE_STYLE_USAGE(.BOTH.,#124);
#79=FACE_OUTER_BOUND('',#125,.T.);
#80=PLANE('',#126);
#81=SURFACE_STYLE_USAGE(.BOTH.,#127);
#82=FACE_OUTER_BOUND('',#128,.T.);
#83=CYLINDRICAL_SURFACE('',#129,10.0);
#84=SURFACE_STYLE_USAGE(.BOTH.,#130);
#85=FACE_OUTER_BOUND('',#131,.T.);
#86=CYLINDRICAL_SURFACE('',#132,10.0);
#87=SURFACE_STYLE_USAGE(.BOTH.,#133);
#88=FACE_OUTER_BOUND('',#134,.T.);
#89=FACE_BOUND('',#135,.T.);
#90=PLANE('',#136);
#91=SURFACE_STYLE_USAGE(.BOTH.,#137);
#92=FACE_OUTER_BOUND('',#138,.T.);
#93=CYLINDRICAL_SURFACE('',#139,8.0);
#94=SURFACE_STYLE_USAGE(.BOTH.,#140);
#95=FACE_OUTER_BOUND('',#141,.T.);
#96=CYLINDRICAL_SURFACE('',#142,8.0);
#97=SURFACE_STYLE_USAGE(.BOTH.,#143);
#98=FACE_OUTER_BOUND('',#144,.T.);
#99=FACE_BOUND('',#145,.T.);
#100=PLANE('',#146);
#101=SURFACE_STYLE_USAGE(.BOTH.,#147);
#102=FACE_OUTER_BOUND('',#148,.T.);
#103=CYLINDRICAL_SURFACE('',#149,3.0);
#104=SURFACE_STYLE_USAGE(.BOTH.,#150);
#105=FACE_OUTER_BOUND('',#151,.T.);
#106=CYLINDRICAL_SURFACE('',#152,3.0);
#107=SURFACE_STYLE_USAGE(.BOTH.,#153);
#108=FACE_OUTER_BOUND('',#154,.T.);
#109=CONICAL_SURFACE('',#155,2.75,0.7853981633973);
#110=SURFACE_STYLE_USAGE(.BOTH.,#156);
#111=FACE_OUTER_BOUND('',#157,.T.);
#112=PLANE('',#158);
#113=SURFACE_STYLE_USAGE(.BOTH.,#159);
#114=FACE_OUTER_BOUND('',#160,.T.);
#115=CONICAL_SURFACE('',#161,2.75,0.7853981633973);
#116=SURFACE_STYLE_USAGE(.BOTH.,#162);
#117=CLOSED_SHELL('',(#37,#39,#41,#43,#45,#47,#49,#51,#53,#55,#57,#59));
#118=PRODUCT_CONTEXT('',#23,'mechanical');
#119=PRODUCT_DEFINITION_FORMATION_WITH_SPECIFIED_SOURCE(' ','NONE',#62,.NOT_KNOWN.);
#120=CARTESIAN_POINT('',(0.0,0.0,0.0));
#121=DIRECTION('',(0.0,0.0,1.0));
#122=DIRECTION('',(1.0,0.0,0.0));
#123= (NAMED_UNIT(#70)LENGTH_UNIT()SI_UNIT(.MILLI.,.METRE.));
#124=SURFACE_SIDE_STYLE('',(#164));
#125=EDGE_LOOP('',(#165,#166));
#126=AXIS2_PLACEMENT_3D('',#167,#168,#169);
#127=SURFACE_SIDE_STYLE('',(#170));
#128=EDGE_LOOP('',(#171,#172,#173,#174));
#129=AXIS2_PLACEMENT_3D('',#175,#176,#177);
#130=SURFACE_SIDE_STYLE('',(#178));
#131=EDGE_LOOP('',(#179,#180,#181,#182));
#132=AXIS2_PLACEMENT_3D('',#183,#184,#185);
#133=SURFACE_SIDE_STYLE('',(#186));
#134=EDGE_LOOP('',(#187,#188));
#135=EDGE_LOOP('',(#189,#190));
#136=AXIS2_PLACEMENT_3D('',#191,#192,#193);
#137=SURFACE_SIDE_STYLE('',(#194));
#138=EDGE_LOOP('',(#195,#196,#197,#198));
#139=AXIS2_PLACEMENT_3D('',#199,#200,#201);
#140=SURFACE_SIDE_STYLE('',(#202));
#141=EDGE_LOOP('',(#203,#204,#205,#206));
#142=AXIS2_PLACEMENT_3D('',#207,#208,#209);
#143=SURFACE_SIDE_STYLE('',(#210));
#144=EDGE_LOOP('',(#211,#212));
#145=EDGE_LOOP('',(#213,#214));
#146=AXIS2_PLACEMENT_3D('',#215,#216,#217);
#147=SURFACE_SIDE_STYLE('',(#218));
#148=EDGE_LOOP('',(#219,#220,#221,#222));
#149=AXIS2_PLACEMENT_3D('',#223,#224,#225);
#150=SURFACE_SIDE_STYLE('',(#226));
#151=EDGE_LOOP('',(#227,#228,#229,#230));
#152=AXIS2_PLACEMENT_3D('',#231,#232,#233);
#153=SURFACE_SIDE_STYLE('',(#234));
#154=EDGE_LOOP('',(#235,#236,#237,#238));
#155=AXIS2_PLACEMENT_3D('',#239,#240,#241);
#156=SURFACE_SIDE_STYLE('',(#242));
#157=EDGE_LOOP('',(#243,#244));
#158=AXIS2_PLACEMENT_3D('',#245,#246,#247);
#159=SURFACE_SIDE_STYLE('',(#248));
#160=EDGE_LOOP('',(#249,#250,#251,#252));
#161=AXIS2_PLACEMENT_3D('',#253,#254,#255);
#162=SURFACE_SIDE_STYLE('',(#256));
#164=SURFACE_STYLE_FILL_AREA(#257);
#165=ORIENTED_EDGE('',*,*,#258,.T.);
#166=ORIENTED_EDGE('',*,*,#259,.F.);
#167=CARTESIAN_POINT('',(0.0,0.0,0.0));
#168=DIRECTION('',(0.0,0.0,-1.0));
#169=DIRECTION('',(0.0,1.0,0.0));
#170=SURFACE_STYLE_FILL_AREA(#260);
#171=ORIENTED_EDGE('',*,*,#259,.T.);
#172=ORIENTED_EDGE('',*,*,#261,.T.);
#173=ORIENTED_EDGE('',*,*,#262,.F.);
#174=ORIENTED_EDGE('',*,*,#263,.F.);
#175=CARTESIAN_POINT('',(0.0,0.0,37.8));
#176=DIRECTION('',(0.0,0.0,1.0));
#177=DIRECTION('',(1.0,0.0,0.0));
#178=SURFACE_STYLE_FILL_AREA(#264);
#179=ORIENTED_EDGE('',*,*,#265,.T.);
#180=ORIENTED_EDGE('',*,*,#261,.F.);
#181=ORIENTED_EDGE('',*,*,#258,.F.);
#182=ORIENTED_EDGE('',*,*,#263,.T.);
#183=CARTESIAN_POINT('',(0.0,0.0,37.8));
#184=DIRECTION('',(0.0,0.0,1.0));
#185=DIRECTION('',(1.0,0.0,0.0));
#186=SURFACE_STYLE_FILL_AREA(#266);
#187=ORIENTED_EDGE('',*,*,#262,.T.);
#188=ORIENTED_EDGE('',*,*,#265,.F.);
#189=ORIENTED_EDGE('',*,*,#267,.T.);
#190=ORIENTED_EDGE('',*,*,#268,.T.);
#191=CARTESIAN_POINT('',(0.0,0.0,6.0));
#192=DIRECTION('',(0.0,0.0,-1.0));
#193=DIRECTION('',(0.0,1.0,0.0));
#194=SURFACE_STYLE_FILL_AREA(#269);
#195=ORIENTED_EDGE('',*,*,#270,.T.);
#196=ORIENTED_EDGE('',*,*,#271,.T.);
#197=ORIENTED_EDGE('',*,*,#272,.F.);
#198=ORIENTED_EDGE('',*,*,#268,.F.);
#199=CARTESIAN_POINT('',(0.0,0.0,6.525));
#200=DIRECTION('',(0.0,0.0,1.0));
#201=DIRECTION('',(1.0,0.0,0.0));
#202=SURFACE_STYLE_FILL_AREA(#273);
#203=ORIENTED_EDGE('',*,*,#272,.T.);
#204=ORIENTED_EDGE('',*,*,#274,.F.);
#205=ORIENTED_EDGE('',*,*,#270,.F.);
#206=ORIENTED_EDGE('',*,*,#267,.F.);
#207=CARTESIAN_POINT('',(0.0,0.0,6.525));
#208=DIRECTION('',(0.0,0.0,1.0));
#209=DIRECTION('',(1.0,0.0,0.0));
#210=SURFACE_STYLE_FILL_AREA(#275);
#211=ORIENTED_EDGE('',*,*,#271,.F.);
#212=ORIENTED_EDGE('',*,*,#274,.T.);
#213=ORIENTED_EDGE('',*,*,#276,.T.);
#214=ORIENTED_EDGE('',*,*,#277,.T.);
#215=CARTESIAN_POINT('',(0.0,0.0,6.5));
#216=DIRECTION('',(0.0,0.0,-1.0));
#217=DIRECTION('',(0.0,1.0,0.0));
#218=SURFACE_STYLE_FILL_AREA(#278);
#219=ORIENTED_EDGE('',*,*,#279,.T.);
#220=ORIENTED_EDGE('',*,*,#280,.T.);
#221=ORIENTED_EDGE('',*,*,#281,.F.);
#222=ORIENTED_EDGE('',*,*,#277,.F.);
#223=CARTESIAN_POINT('',(0.0,0.0,37.8));
#224=DIRECTION('',(0.0,0.0,1.0));
#225=DIRECTION('',(1.0,0.0,0.0));
#226=SURFACE_STYLE_FILL_AREA(#282);
#227=ORIENTED_EDGE('',*,*,#281,.T.);
#228=ORIENTED_EDGE('',*,*,#283,.F.);
#229=ORIENTED_EDGE('',*,*,#279,.F.);
#230=ORIENTED_EDGE('',*,*,#276,.F.);
#231=CARTESIAN_POINT('',(0.0,0.0,37.8));
#232=DIRECTION('',(0.0,0.0,1.0));
#233=DIRECTION('',(1.0,0.0,0.0));
#234=SURFACE_STYLE_FILL_AREA(#284);
#235=ORIENTED_EDGE('',*,*,#285,.T.);
#236=ORIENTED_EDGE('',*,*,#283,.T.);
#237=ORIENTED_EDGE('',*,*,#286,.F.);
#238=ORIENTED_EDGE('',*,*,#287,.F.);
#239=CARTESIAN_POINT('',(0.0,0.0,35.75));
#240=DIRECTION('',(-0.0,-0.0,-1.0));
#241=DIRECTION('',(1.0,0.0,0.0));
#242=SURFACE_STYLE_FILL_AREA(#288);
#243=ORIENTED_EDGE('',*,*,#289,.F.);
#244=ORIENTED_EDGE('',*,*,#287,.T.);
#245=CARTESIAN_POINT('',(0.0,0.0,36.0));
#246=DIRECTION('',(0.0,0.0,-1.0));
#247=DIRECTION('',(0.0,1.0,0.0));
#248=SURFACE_STYLE_FILL_AREA(#290);
#249=ORIENTED_EDGE('',*,*,#286,.T.);
#250=ORIENTED_EDGE('',*,*,#280,.F.);
#251=ORIENTED_EDGE('',*,*,#285,.F.);
#252=ORIENTED_EDGE('',*,*,#289,.T.);
#253=CARTESIAN_POINT('',(0.0,0.0,35.75));
#254=DIRECTION('',(-0.0,-0.0,-1.0));
#255=DIRECTION('',(1.0,0.0,0.0));
#256=SURFACE_STYLE_FILL_AREA(#291);
#257=FILL_AREA_STYLE('',(#292));
#258=EDGE_CURVE('1287',#293,#294,#295,.T.);
#259=EDGE_CURVE('1313',#293,#294,#296,.T.);
#260=FILL_AREA_STYLE('',(#297));
#261=EDGE_CURVE('1278',#294,#298,#299,.T.);
#262=EDGE_CURVE('1315',#300,#298,#301,.T.);
#263=EDGE_CURVE('1271',#293,#300,#302,.T.);
#264=FILL_AREA_STYLE('',(#303));
#265=EDGE_CURVE('1289',#300,#298,#304,.T.);
#266=FILL_AREA_STYLE('',(#305));
#267=EDGE_CURVE('1380',#306,#307,#308,.T.);
#268=EDGE_CURVE('1379',#307,#306,#309,.T.);
#269=FILL_AREA_STYLE('',(#310));
#270=EDGE_CURVE('1385',#307,#311,#312,.T.);
#271=EDGE_CURVE('1356',#311,#313,#314,.T.);
#272=EDGE_CURVE('1386',#306,#313,#315,.T.);
#273=FILL_AREA_STYLE('',(#316));
#274=EDGE_CURVE('1374',#311,#313,#317,.T.);
#275=FILL_AREA_STYLE('',(#318));
#276=EDGE_CURVE('1382',#319,#320,#321,.T.);
#277=EDGE_CURVE('1381',#320,#319,#322,.T.);
#278=FILL_AREA_STYLE('',(#323));
#279=EDGE_CURVE('1383',#320,#324,#325,.T.);
#280=EDGE_CURVE('1332',#324,#326,#327,.T.);
#281=EDGE_CURVE('1384',#319,#326,#328,.T.);
#282=FILL_AREA_STYLE('',(#329));
#283=EDGE_CURVE('1329',#324,#326,#330,.T.);
#284=FILL_AREA_STYLE('',(#331));
#285=EDGE_CURVE('1333',#332,#324,#333,.T.);
#286=EDGE_CURVE('1334',#334,#326,#335,.T.);
#287=EDGE_CURVE('1328',#332,#334,#336,.T.);
#288=FILL_AREA_STYLE('',(#337));
#289=EDGE_CURVE('1331',#332,#334,#338,.T.);
#290=FILL_AREA_STYLE('',(#339));
#291=FILL_AREA_STYLE('',(#340));
#292=FILL_AREA_STYLE_COLOUR('',#341);
#293=VERTEX_POINT('',#342);
#294=VERTEX_POINT('',#343);
#295=CIRCLE('',#344,10.0);
#296=CIRCLE('',#345,10.0);
#297=FILL_AREA_STYLE_COLOUR('',#346);
#298=VERTEX_POINT('',#347);
#299=LINE('',#348,#349);
#300=VERTEX_POINT('',#350);
#301=CIRCLE('',#351,10.0);
#302=LINE('',#352,#353);
#303=FILL_AREA_STYLE_COLOUR('',#354);
#304=CIRCLE('',#355,10.0);
#305=FILL_AREA_STYLE_COLOUR('',#356);
#306=VERTEX_POINT('',#357);
#307=VERTEX_POINT('',#358);
#308=CIRCLE('',#359,8.0);
#309=CIRCLE('',#360,8.0);
#310=FILL_AREA_STYLE_COLOUR('',#361);
#311=VERTEX_POINT('',#362);
#312=LINE('',#363,#364);
#313=VERTEX_POINT('',#365);
#314=CIRCLE('',#366,8.0);
#315=LINE('',#367,#368);
#316=FILL_AREA_STYLE_COLOUR('',#369);
#317=CIRCLE('',#370,8.0);
#318=FILL_AREA_STYLE_COLOUR('',#371);
#319=VERTEX_POINT('',#372);
#320=VERTEX_POINT('',#373);
#321=CIRCLE('',#374,3.0);
#322=CIRCLE('',#375,3.0);
#323=FILL_AREA_STYLE_COLOUR('',#376);
#324=VERTEX_POINT('',#377);
#325=LINE('',#378,#379);
#326=VERTEX_POINT('',#380);
#327=CIRCLE('',#381,3.0);
#328=LINE('',#382,#383);
#329=FILL_AREA_STYLE_COLOUR('',#384);
#330=CIRCLE('',#385,3.0);
#331=FILL_AREA_STYLE_COLOUR('',#386);
#332=VERTEX_POINT('',#387);
#333=LINE('',#388,#389);
#334=VERTEX_POINT('',#390);
#335=LINE('',#391,#392);
#336=CIRCLE('',#393,2.5);
#337=FILL_AREA_STYLE_COLOUR('',#394);
#338=CIRCLE('',#395,2.5);
#339=FILL_AREA_STYLE_COLOUR('',#396);
#340=FILL_AREA_STYLE_COLOUR('',#397);
#341=COLOUR_RGB('',0.509803950786591,0.509803950786591,0.588235318660736);
#342=CARTESIAN_POINT('',(-10.0,0.0,0.0));
#343=CARTESIAN_POINT('',(10.0,0.0,0.0));
#344=AXIS2_PLACEMENT_3D('',#398,#399,#400);
#345=AXIS2_PLACEMENT_3D('',#401,#402,#403);
#346=COLOUR_RGB('',0.509803950786591,0.509803950786591,0.588235318660736);
#347=CARTESIAN_POINT('',(10.0,0.0,6.0));
#348=CARTESIAN_POINT('',(10.0,0.0,0.0));
#349=VECTOR('',#404,6.0);
#350=CARTESIAN_POINT('',(-10.0,0.0,6.0));
#351=AXIS2_PLACEMENT_3D('',#405,#406,#407);
#352=CARTESIAN_POINT('',(-10.0,0.0,0.0));
#353=VECTOR('',#408,6.0);
#354=COLOUR_RGB('',0.509803950786591,0.509803950786591,0.588235318660736);
#355=AXIS2_PLACEMENT_3D('',#409,#410,#411);
#356=COLOUR_RGB('',0.509803950786591,0.509803950786591,0.588235318660736);
#357=CARTESIAN_POINT('',(8.0,0.0,6.0));
#358=CARTESIAN_POINT('',(-8.0,0.0,6.0));
#359=AXIS2_PLACEMENT_3D('',#412,#413,#414);
#360=AXIS2_PLACEMENT_3D('',#415,#416,#417);
#361=COLOUR_RGB('',0.509803950786591,0.509803950786591,0.588235318660736);
#362=CARTESIAN_POINT('',(-8.0,0.0,6.5));
#363=CARTESIAN_POINT('',(-8.0,0.0,6.0));
#364=VECTOR('',#418,0.5);
#365=CARTESIAN_POINT('',(8.0,0.0,6.5));
#366=AXIS2_PLACEMENT_3D('',#419,#420,#421);
#367=CARTESIAN_POINT('',(8.0,0.0,6.0));
#368=VECTOR('',#422,0.5);
#369=COLOUR_RGB('',0.509803950786591,0.509803950786591,0.588235318660736);
#370=AXIS2_PLACEMENT_3D('',#423,#424,#425);
#371=COLOUR_RGB('',0.509803950786591,0.509803950786591,0.588235318660736);
#372=CARTESIAN_POINT('',(3.0,0.0,6.5));
#373=CARTESIAN_POINT('',(-3.0,0.0,6.5));
#374=AXIS2_PLACEMENT_3D('',#426,#427,#428);
#375=AXIS2_PLACEMENT_3D('',#429,#430,#431);
#376=COLOUR_RGB('',0.509803950786591,0.509803950786591,0.588235318660736);
#377=CARTESIAN_POINT('',(-3.0,0.0,35.5));
#378=CARTESIAN_POINT('',(-3.0,0.0,6.5));
#379=VECTOR('',#432,29.0);
#380=CARTESIAN_POINT('',(3.0,0.0,35.5));
#381=AXIS2_PLACEMENT_3D('',#433,#434,#435);
#382=CARTESIAN_POINT('',(3.0,0.0,6.5));
#383=VECTOR('',#436,29.0);
#384=COLOUR_RGB('',0.509803950786591,0.509803950786591,0.588235318660736);
#385=AXIS2_PLACEMENT_3D('',#437,#438,#439);
#386=COLOUR_RGB('',0.509803950786591,0.509803950786591,0.588235318660736);
#387=CARTESIAN_POINT('',(-2.5,0.0,36.0));
#388=CARTESIAN_POINT('',(-2.5,0.0,36.0));
#389=VECTOR('',#440,0.7071067811865);
#390=CARTESIAN_POINT('',(2.5,0.0,36.0));
#391=CARTESIAN_POINT('',(2.5,0.0,36.0));
#392=VECTOR('',#441,0.7071067811865);
#393=AXIS2_PLACEMENT_3D('',#442,#443,#444);
#394=COLOUR_RGB('',0.509803950786591,0.509803950786591,0.588235318660736);
#395=AXIS2_PLACEMENT_3D('',#445,#446,#447);
#396=COLOUR_RGB('',0.509803950786591,0.509803950786591,0.588235318660736);
#397=COLOUR_RGB('',0.509803950786591,0.509803950786591,0.588235318660736);
#398=CARTESIAN_POINT('',(0.0,0.0,0.0));
#399=DIRECTION('',(0.0,0.0,-1.0));
#400=DIRECTION('',(-1.0,0.0,0.0));
#401=CARTESIAN_POINT('',(0.0,0.0,0.0));
#402=DIRECTION('',(0.0,0.0,1.0));
#403=DIRECTION('',(-1.0,0.0,0.0));
#404=DIRECTION('',(0.0,0.0,1.0));
#405=CARTESIAN_POINT('',(0.0,0.0,6.0));
#406=DIRECTION('',(0.0,0.0,1.0));
#407=DIRECTION('',(-1.0,0.0,0.0));
#408=DIRECTION('',(0.0,0.0,1.0));
#409=CARTESIAN_POINT('',(0.0,0.0,6.0));
#410=DIRECTION('',(0.0,0.0,-1.0));
#411=DIRECTION('',(-1.0,0.0,0.0));
#412=CARTESIAN_POINT('',(0.0,0.0,6.0));
#413=DIRECTION('',(0.0,0.0,-1.0));
#414=DIRECTION('',(1.0,0.0,0.0));
#415=CARTESIAN_POINT('',(0.0,0.0,6.0));
#416=DIRECTION('',(0.0,0.0,-1.0));
#417=DIRECTION('',(-1.0,0.0,0.0));
#418=DIRECTION('',(0.0,0.0,1.0));
#419=CARTESIAN_POINT('',(0.0,0.0,6.5));
#420=DIRECTION('',(0.0,0.0,-1.0));
#421=DIRECTION('',(-1.0,0.0,0.0));
#422=DIRECTION('',(0.0,0.0,1.0));
#423=CARTESIAN_POINT('',(0.0,0.0,6.5));
#424=DIRECTION('',(0.0,0.0,1.0));
#425=DIRECTION('',(-1.0,0.0,0.0));
#426=CARTESIAN_POINT('',(0.0,0.0,6.5));
#427=DIRECTION('',(0.0,0.0,-1.0));
#428=DIRECTION('',(1.0,0.0,0.0));
#429=CARTESIAN_POINT('',(0.0,0.0,6.5));
#430=DIRECTION('',(0.0,0.0,-1.0));
#431=DIRECTION('',(-1.0,0.0,0.0));
#432=DIRECTION('',(0.0,0.0,1.0));
#433=CARTESIAN_POINT('',(0.0,0.0,35.5));
#434=DIRECTION('',(0.0,0.0,-1.0));
#435=DIRECTION('',(-1.0,0.0,0.0));
#436=DIRECTION('',(0.0,0.0,1.0));
#437=CARTESIAN_POINT('',(0.0,0.0,35.5));
#438=DIRECTION('',(0.0,0.0,1.0));
#439=DIRECTION('',(-1.0,0.0,0.0));
#440=DIRECTION('',(-0.707106781186548,-0.0,-0.707106781186548));
#441=DIRECTION('',(0.707106781186548,0.0,-0.707106781186548));
#442=CARTESIAN_POINT('',(0.0,0.0,36.0));
#443=DIRECTION('',(0.0,0.0,1.0));
#444=DIRECTION('',(-1.0,0.0,0.0));
#445=CARTESIAN_POINT('',(0.0,0.0,36.0));
#446=DIRECTION('',(0.0,0.0,-1.0));
#447=DIRECTION('',(-1.0,0.0,0.0));
ENDSEC;
END-ISO-10303-21;
