ISO-10303-21;
HEADER;
FILE_DESCRIPTION(('STEP AP214'),'1');
FILE_NAME('cctmp_CCECA99B-2DF1-4335-A75A-145915BAE3D6_2022_01_11_15_48_22_0363..stp','2022-01-11T14:48:22',('Bosch Rexroth AG'),('CADClick - www.CADClick.com'),'Spatial InterOp 3D',' ','unknown authorization - (Healing Option Enabled)');
FILE_SCHEMA(('AUTOMOTIVE_DESIGN'));
ENDSEC;
DATA;
#1=MECHANICAL_DESIGN_GEOMETRIC_PRESENTATION_REPRESENTATION(' ',(#10,#11,#12,#13,#14,#15,#16,#17,#18,#19,#20,#21,#22,#23,#24,#25,#26,#27),#6);
#2=PRODUCT_DEFINITION_CONTEXT('',#28,'design');
#3=APPLICATION_PROTOCOL_DEFINITION('INTERNATIONAL STANDARD','automotive_design',1994,#28);
#4=PRODUCT_CATEGORY_RELATIONSHIP('NONE','NONE',#29,#30);
#5=SHAPE_DEFINITION_REPRESENTATION(#31,#32);
#6= (GEOMETRIC_REPRESENTATION_CONTEXT(3)GLOBAL_UNCERTAINTY_ASSIGNED_CONTEXT((#35))GLOBAL_UNIT_ASSIGNED_CONTEXT((#37,#38,#39))REPRESENTATION_CONTEXT('NONE','WORKSPACE'));
#10=STYLED_ITEM('',(#41),#42);
#11=STYLED_ITEM('',(#43),#44);
#12=STYLED_ITEM('',(#45),#46);
#13=STYLED_ITEM('',(#47),#48);
#14=STYLED_ITEM('',(#49),#50);
#15=STYLED_ITEM('',(#51),#52);
#16=STYLED_ITEM('',(#53),#54);
#17=STYLED_ITEM('',(#55),#56);
#18=STYLED_ITEM('',(#57),#58);
#19=STYLED_ITEM('',(#59),#60);
#20=STYLED_ITEM('',(#61),#62);
#21=STYLED_ITEM('',(#63),#64);
#22=STYLED_ITEM('',(#65),#66);
#23=STYLED_ITEM('',(#67),#68);
#24=STYLED_ITEM('',(#69),#70);
#25=STYLED_ITEM('',(#71),#72);
#26=STYLED_ITEM('',(#73),#74);
#27=STYLED_ITEM('',(#75),#76);
#28=APPLICATION_CONTEXT(' ');
#29=PRODUCT_CATEGORY('part','NONE');
#30=PRODUCT_RELATED_PRODUCT_CATEGORY('detail',' ',(#77));
#31=PRODUCT_DEFINITION_SHAPE('NONE','NONE',#78);
#32=ADVANCED_BREP_SHAPE_REPRESENTATION('2022_01_11_15_48_22_0363',(#76,#79),#6);
#35=UNCERTAINTY_MEASURE_WITH_UNIT(LENGTH_MEASURE(1.0E-006),#37,'','');
#37= (CONVERSION_BASED_UNIT('MILLIMETRE',#82)LENGTH_UNIT()NAMED_UNIT(#85));
#38= (NAMED_UNIT(#87)PLANE_ANGLE_UNIT()SI_UNIT($,.RADIAN.));
#39= (NAMED_UNIT(#87)SOLID_ANGLE_UNIT()SI_UNIT($,.STERADIAN.));
#41=PRESENTATION_STYLE_ASSIGNMENT((#93));
#42=ADVANCED_FACE('',(#94),#95,.T.);
#43=PRESENTATION_STYLE_ASSIGNMENT((#96));
#44=ADVANCED_FACE('',(#97),#98,.T.);
#45=PRESENTATION_STYLE_ASSIGNMENT((#99));
#46=ADVANCED_FACE('',(#100),#101,.T.);
#47=PRESENTATION_STYLE_ASSIGNMENT((#102));
#48=ADVANCED_FACE('',(#103),#104,.T.);
#49=PRESENTATION_STYLE_ASSIGNMENT((#105));
#50=ADVANCED_FACE('',(#106),#107,.F.);
#51=PRESENTATION_STYLE_ASSIGNMENT((#108));
#52=ADVANCED_FACE('',(#109),#110,.T.);
#53=PRESENTATION_STYLE_ASSIGNMENT((#111));
#54=ADVANCED_FACE('',(#112),#113,.T.);
#55=PRESENTATION_STYLE_ASSIGNMENT((#114));
#56=ADVANCED_FACE('',(#115),#116,.T.);
#57=PRESENTATION_STYLE_ASSIGNMENT((#117));
#58=ADVANCED_FACE('',(#118),#119,.T.);
#59=PRESENTATION_STYLE_ASSIGNMENT((#120));
#60=ADVANCED_FACE('',(#121,#122),#123,.T.);
#61=PRESENTATION_STYLE_ASSIGNMENT((#124));
#62=ADVANCED_FACE('',(#125),#126,.F.);
#63=PRESENTATION_STYLE_ASSIGNMENT((#127));
#64=ADVANCED_FACE('',(#128),#129,.F.);
#65=PRESENTATION_STYLE_ASSIGNMENT((#130));
#66=ADVANCED_FACE('',(#131),#132,.F.);
#67=PRESENTATION_STYLE_ASSIGNMENT((#133));
#68=ADVANCED_FACE('',(#134),#135,.F.);
#69=PRESENTATION_STYLE_ASSIGNMENT((#136));
#70=ADVANCED_FACE('',(#137),#138,.F.);
#71=PRESENTATION_STYLE_ASSIGNMENT((#139));
#72=ADVANCED_FACE('',(#140),#141,.F.);
#73=PRESENTATION_STYLE_ASSIGNMENT((#142));
#74=ADVANCED_FACE('',(#143),#144,.T.);
#75=PRESENTATION_STYLE_ASSIGNMENT((#145));
#76=MANIFOLD_SOLID_BREP('2022_01_11_15_48_22_0363',#146);
#77=PRODUCT('2022_01_11_15_48_22_0363','','PART--DESC',(#147));
#78=PRODUCT_DEFINITION('','NONE',#148,#2);
#79=AXIS2_PLACEMENT_3D('',#149,#150,#151);
#82=LENGTH_MEASURE_WITH_UNIT(LENGTH_MEASURE(1.0),#152);
#85=DIMENSIONAL_EXPONENTS(1.0,0.0,0.0,0.0,0.0,0.0,0.0);
#87=DIMENSIONAL_EXPONENTS(0.0,0.0,0.0,0.0,0.0,0.0,0.0);
#93=SURFACE_STYLE_USAGE(.BOTH.,#153);
#94=FACE_OUTER_BOUND('',#154,.T.);
#95=CYLINDRICAL_SURFACE('',#155,8.0);
#96=SURFACE_STYLE_USAGE(.BOTH.,#156);
#97=FACE_OUTER_BOUND('',#157,.T.);
#98=CONICAL_SURFACE('',#158,6.0,0.7853981634);
#99=SURFACE_STYLE_USAGE(.BOTH.,#159);
#100=FACE_OUTER_BOUND('',#160,.T.);
#101=CYLINDRICAL_SURFACE('',#161,4.0);
#102=SURFACE_STYLE_USAGE(.BOTH.,#162);
#103=FACE_OUTER_BOUND('',#163,.T.);
#104=CONICAL_SURFACE('',#164,3.75,0.2617993878);
#105=SURFACE_STYLE_USAGE(.BOTH.,#165);
#106=FACE_OUTER_BOUND('',#166,.T.);
#107=PLANE('',#167);
#108=SURFACE_STYLE_USAGE(.BOTH.,#168);
#109=FACE_OUTER_BOUND('',#169,.T.);
#110=CONICAL_SURFACE('',#170,3.75,0.2617993878);
#111=SURFACE_STYLE_USAGE(.BOTH.,#171);
#112=FACE_OUTER_BOUND('',#172,.T.);
#113=CYLINDRICAL_SURFACE('',#173,4.0);
#114=SURFACE_STYLE_USAGE(.BOTH.,#174);
#115=FACE_OUTER_BOUND('',#175,.T.);
#116=CONICAL_SURFACE('',#176,6.0,0.7853981634);
#117=SURFACE_STYLE_USAGE(.BOTH.,#177);
#118=FACE_OUTER_BOUND('',#178,.T.);
#119=CYLINDRICAL_SURFACE('',#179,8.0);
#120=SURFACE_STYLE_USAGE(.BOTH.,#180);
#121=FACE_OUTER_BOUND('',#181,.T.);
#122=FACE_BOUND('',#182,.T.);
#123=PLANE('',#183);
#124=SURFACE_STYLE_USAGE(.BOTH.,#184);
#125=FACE_OUTER_BOUND('',#185,.T.);
#126=PLANE('',#186);
#127=SURFACE_STYLE_USAGE(.BOTH.,#187);
#128=FACE_OUTER_BOUND('',#188,.T.);
#129=PLANE('',#189);
#130=SURFACE_STYLE_USAGE(.BOTH.,#190);
#131=FACE_OUTER_BOUND('',#191,.T.);
#132=PLANE('',#192);
#133=SURFACE_STYLE_USAGE(.BOTH.,#193);
#134=FACE_OUTER_BOUND('',#194,.T.);
#135=PLANE('',#195);
#136=SURFACE_STYLE_USAGE(.BOTH.,#196);
#137=FACE_OUTER_BOUND('',#197,.T.);
#138=PLANE('',#198);
#139=SURFACE_STYLE_USAGE(.BOTH.,#199);
#140=FACE_OUTER_BOUND('',#200,.T.);
#141=PLANE('',#201);
#142=SURFACE_STYLE_USAGE(.BOTH.,#202);
#143=FACE_OUTER_BOUND('',#203,.T.);
#144=PLANE('',#204);
#145=SURFACE_STYLE_USAGE(.BOTH.,#205);
#146=CLOSED_SHELL('',(#42,#44,#46,#48,#50,#52,#54,#56,#58,#60,#62,#64,#66,#68,#70,#72,#74));
#147=PRODUCT_CONTEXT('',#28,'mechanical');
#148=PRODUCT_DEFINITION_FORMATION_WITH_SPECIFIED_SOURCE(' ','NONE',#77,.NOT_KNOWN.);
#149=CARTESIAN_POINT('',(0.0,0.0,0.0));
#150=DIRECTION('',(0.0,0.0,1.0));
#151=DIRECTION('',(1.0,0.0,0.0));
#152= (NAMED_UNIT(#85)LENGTH_UNIT()SI_UNIT(.MILLI.,.METRE.));
#153=SURFACE_SIDE_STYLE('',(#207));
#154=EDGE_LOOP('',(#208,#209,#210,#211));
#155=AXIS2_PLACEMENT_3D('',#212,#213,#214);
#156=SURFACE_SIDE_STYLE('',(#215));
#157=EDGE_LOOP('',(#216,#217,#218,#219));
#158=AXIS2_PLACEMENT_3D('',#220,#221,#222);
#159=SURFACE_SIDE_STYLE('',(#223));
#160=EDGE_LOOP('',(#224,#225,#226,#227));
#161=AXIS2_PLACEMENT_3D('',#228,#229,#230);
#162=SURFACE_SIDE_STYLE('',(#231));
#163=EDGE_LOOP('',(#232,#233,#234,#235));
#164=AXIS2_PLACEMENT_3D('',#236,#237,#238);
#165=SURFACE_SIDE_STYLE('',(#239));
#166=EDGE_LOOP('',(#240,#241));
#167=AXIS2_PLACEMENT_3D('',#242,#243,#244);
#168=SURFACE_SIDE_STYLE('',(#245));
#169=EDGE_LOOP('',(#246,#247,#248,#249));
#170=AXIS2_PLACEMENT_3D('',#250,#251,#252);
#171=SURFACE_SIDE_STYLE('',(#253));
#172=EDGE_LOOP('',(#254,#255,#256,#257));
#173=AXIS2_PLACEMENT_3D('',#258,#259,#260);
#174=SURFACE_SIDE_STYLE('',(#261));
#175=EDGE_LOOP('',(#262,#263,#264,#265));
#176=AXIS2_PLACEMENT_3D('',#266,#267,#268);
#177=SURFACE_SIDE_STYLE('',(#269));
#178=EDGE_LOOP('',(#270,#271,#272,#273));
#179=AXIS2_PLACEMENT_3D('',#274,#275,#276);
#180=SURFACE_SIDE_STYLE('',(#277));
#181=EDGE_LOOP('',(#278,#279));
#182=EDGE_LOOP('',(#280,#281,#282,#283,#284,#285));
#183=AXIS2_PLACEMENT_3D('',#286,#287,#288);
#184=SURFACE_SIDE_STYLE('',(#289));
#185=EDGE_LOOP('',(#290,#291,#292,#293));
#186=AXIS2_PLACEMENT_3D('',#294,#295,#296);
#187=SURFACE_SIDE_STYLE('',(#297));
#188=EDGE_LOOP('',(#298,#299,#300,#301));
#189=AXIS2_PLACEMENT_3D('',#302,#303,#304);
#190=SURFACE_SIDE_STYLE('',(#305));
#191=EDGE_LOOP('',(#306,#307,#308,#309));
#192=AXIS2_PLACEMENT_3D('',#310,#311,#312);
#193=SURFACE_SIDE_STYLE('',(#313));
#194=EDGE_LOOP('',(#314,#315,#316,#317));
#195=AXIS2_PLACEMENT_3D('',#318,#319,#320);
#196=SURFACE_SIDE_STYLE('',(#321));
#197=EDGE_LOOP('',(#322,#323,#324,#325));
#198=AXIS2_PLACEMENT_3D('',#326,#327,#328);
#199=SURFACE_SIDE_STYLE('',(#329));
#200=EDGE_LOOP('',(#330,#331,#332,#333));
#201=AXIS2_PLACEMENT_3D('',#334,#335,#336);
#202=SURFACE_SIDE_STYLE('',(#337));
#203=EDGE_LOOP('',(#338,#339,#340,#341,#342,#343));
#204=AXIS2_PLACEMENT_3D('',#344,#345,#346);
#205=SURFACE_SIDE_STYLE('',(#347));
#207=SURFACE_STYLE_FILL_AREA(#348);
#208=ORIENTED_EDGE('',*,*,#349,.F.);
#209=ORIENTED_EDGE('',*,*,#350,.F.);
#210=ORIENTED_EDGE('',*,*,#351,.F.);
#211=ORIENTED_EDGE('',*,*,#352,.T.);
#212=CARTESIAN_POINT('',(0.0,-1.25,7.65404249467096E-017));
#213=DIRECTION('',(0.0,-1.0,6.12323399573677E-017));
#214=DIRECTION('',(1.0,0.0,0.0));
#215=SURFACE_STYLE_FILL_AREA(#353);
#216=ORIENTED_EDGE('',*,*,#354,.F.);
#217=ORIENTED_EDGE('',*,*,#355,.F.);
#218=ORIENTED_EDGE('',*,*,#356,.F.);
#219=ORIENTED_EDGE('',*,*,#350,.T.);
#220=CARTESIAN_POINT('',(0.0,22.0,-1.34711147906209E-015));
#221=DIRECTION('',(-0.0,1.0,-6.12323399573677E-017));
#222=DIRECTION('',(1.0,0.0,0.0));
#223=SURFACE_STYLE_FILL_AREA(#357);
#224=ORIENTED_EDGE('',*,*,#358,.F.);
#225=ORIENTED_EDGE('',*,*,#359,.F.);
#226=ORIENTED_EDGE('',*,*,#360,.F.);
#227=ORIENTED_EDGE('',*,*,#355,.T.);
#228=CARTESIAN_POINT('',(0.0,-1.25,7.65404249467096E-017));
#229=DIRECTION('',(0.0,-1.0,6.12323399573677E-017));
#230=DIRECTION('',(1.0,0.0,0.0));
#231=SURFACE_STYLE_FILL_AREA(#361);
#232=ORIENTED_EDGE('',*,*,#362,.F.);
#233=ORIENTED_EDGE('',*,*,#363,.F.);
#234=ORIENTED_EDGE('',*,*,#364,.F.);
#235=ORIENTED_EDGE('',*,*,#359,.T.);
#236=CARTESIAN_POINT('',(0.0,0.9330127018922,-5.71305509468053E-017));
#237=DIRECTION('',(-0.0,1.0,-6.12323399573677E-017));
#238=DIRECTION('',(1.0,0.0,0.0));
#239=SURFACE_STYLE_FILL_AREA(#365);
#240=ORIENTED_EDGE('',*,*,#363,.T.);
#241=ORIENTED_EDGE('',*,*,#366,.T.);
#242=CARTESIAN_POINT('',(0.0,0.0,0.0));
#243=DIRECTION('',(0.0,1.0,-6.12323399573677E-017));
#244=DIRECTION('',(1.0,0.0,0.0));
#245=SURFACE_STYLE_FILL_AREA(#367);
#246=ORIENTED_EDGE('',*,*,#362,.T.);
#247=ORIENTED_EDGE('',*,*,#368,.T.);
#248=ORIENTED_EDGE('',*,*,#364,.T.);
#249=ORIENTED_EDGE('',*,*,#366,.F.);
#250=CARTESIAN_POINT('',(0.0,0.9330127018922,-5.71305509468053E-017));
#251=DIRECTION('',(-0.0,1.0,-6.12323399573677E-017));
#252=DIRECTION('',(1.0,0.0,0.0));
#253=SURFACE_STYLE_FILL_AREA(#369);
#254=ORIENTED_EDGE('',*,*,#358,.T.);
#255=ORIENTED_EDGE('',*,*,#370,.T.);
#256=ORIENTED_EDGE('',*,*,#360,.T.);
#257=ORIENTED_EDGE('',*,*,#368,.F.);
#258=CARTESIAN_POINT('',(0.0,-1.25,7.65404249467096E-017));
#259=DIRECTION('',(0.0,-1.0,6.12323399573677E-017));
#260=DIRECTION('',(1.0,0.0,0.0));
#261=SURFACE_STYLE_FILL_AREA(#371);
#262=ORIENTED_EDGE('',*,*,#354,.T.);
#263=ORIENTED_EDGE('',*,*,#372,.T.);
#264=ORIENTED_EDGE('',*,*,#356,.T.);
#265=ORIENTED_EDGE('',*,*,#370,.F.);
#266=CARTESIAN_POINT('',(0.0,22.0,-1.34711147906209E-015));
#267=DIRECTION('',(-0.0,1.0,-6.12323399573677E-017));
#268=DIRECTION('',(1.0,0.0,0.0));
#269=SURFACE_STYLE_FILL_AREA(#373);
#270=ORIENTED_EDGE('',*,*,#349,.T.);
#271=ORIENTED_EDGE('',*,*,#374,.T.);
#272=ORIENTED_EDGE('',*,*,#351,.T.);
#273=ORIENTED_EDGE('',*,*,#372,.F.);
#274=CARTESIAN_POINT('',(0.0,-1.25,7.65404249467096E-017));
#275=DIRECTION('',(0.0,-1.0,6.12323399573677E-017));
#276=DIRECTION('',(1.0,0.0,0.0));
#277=SURFACE_STYLE_FILL_AREA(#375);
#278=ORIENTED_EDGE('',*,*,#352,.F.);
#279=ORIENTED_EDGE('',*,*,#374,.F.);
#280=ORIENTED_EDGE('',*,*,#376,.F.);
#281=ORIENTED_EDGE('',*,*,#377,.F.);
#282=ORIENTED_EDGE('',*,*,#378,.F.);
#283=ORIENTED_EDGE('',*,*,#379,.F.);
#284=ORIENTED_EDGE('',*,*,#380,.F.);
#285=ORIENTED_EDGE('',*,*,#381,.F.);
#286=CARTESIAN_POINT('',(0.0,25.0,-1.53080849893419E-015));
#287=DIRECTION('',(0.0,1.0,-6.12323399573677E-017));
#288=DIRECTION('',(1.0,0.0,0.0));
#289=SURFACE_STYLE_FILL_AREA(#382);
#290=ORIENTED_EDGE('',*,*,#376,.T.);
#291=ORIENTED_EDGE('',*,*,#383,.T.);
#292=ORIENTED_EDGE('',*,*,#384,.F.);
#293=ORIENTED_EDGE('',*,*,#385,.F.);
#294=CARTESIAN_POINT('',(-2.886751345948,25.0,-1.53080849893419E-015));
#295=DIRECTION('',(-0.866025403784429,3.06161699786849E-017,0.500000000000017));
#296=DIRECTION('',(-0.500000000000017,0.0,-0.866025403784429));
#297=SURFACE_STYLE_FILL_AREA(#386);
#298=ORIENTED_EDGE('',*,*,#377,.T.);
#299=ORIENTED_EDGE('',*,*,#385,.T.);
#300=ORIENTED_EDGE('',*,*,#387,.F.);
#301=ORIENTED_EDGE('',*,*,#388,.F.);
#302=CARTESIAN_POINT('',(-1.443375672974,25.0,-2.5));
#303=DIRECTION('',(-0.866025403784429,-3.06161699786849E-017,-0.500000000000017));
#304=DIRECTION('',(-3.53525079574985E-017,1.0,0.0));
#305=SURFACE_STYLE_FILL_AREA(#389);
#306=ORIENTED_EDGE('',*,*,#378,.T.);
#307=ORIENTED_EDGE('',*,*,#388,.T.);
#308=ORIENTED_EDGE('',*,*,#390,.F.);
#309=ORIENTED_EDGE('',*,*,#391,.F.);
#310=CARTESIAN_POINT('',(1.443375672974,25.0,-2.5));
#311=DIRECTION('',(0.0,-6.12323399573677E-017,-1.0));
#312=DIRECTION('',(1.0,0.0,0.0));
#313=SURFACE_STYLE_FILL_AREA(#392);
#314=ORIENTED_EDGE('',*,*,#379,.T.);
#315=ORIENTED_EDGE('',*,*,#391,.T.);
#316=ORIENTED_EDGE('',*,*,#393,.F.);
#317=ORIENTED_EDGE('',*,*,#394,.F.);
#318=CARTESIAN_POINT('',(2.886751345948,25.0,-1.53080849893419E-015));
#319=DIRECTION('',(0.866025403784429,-3.06161699786849E-017,-0.500000000000017));
#320=DIRECTION('',(0.0,-1.0,6.12323399573677E-017));
#321=SURFACE_STYLE_FILL_AREA(#395);
#322=ORIENTED_EDGE('',*,*,#380,.T.);
#323=ORIENTED_EDGE('',*,*,#394,.T.);
#324=ORIENTED_EDGE('',*,*,#396,.F.);
#325=ORIENTED_EDGE('',*,*,#397,.F.);
#326=CARTESIAN_POINT('',(1.443375672974,25.0,2.5));
#327=DIRECTION('',(0.866025403784429,3.06161699786849E-017,0.500000000000017));
#328=DIRECTION('',(0.0,-1.0,6.12323399573677E-017));
#329=SURFACE_STYLE_FILL_AREA(#398);
#330=ORIENTED_EDGE('',*,*,#381,.T.);
#331=ORIENTED_EDGE('',*,*,#397,.T.);
#332=ORIENTED_EDGE('',*,*,#399,.F.);
#333=ORIENTED_EDGE('',*,*,#383,.F.);
#334=CARTESIAN_POINT('',(-1.443375672974,25.0,2.5));
#335=DIRECTION('',(0.0,6.12323399573677E-017,1.0));
#336=DIRECTION('',(-1.0,0.0,0.0));
#337=SURFACE_STYLE_FILL_AREA(#400);
#338=ORIENTED_EDGE('',*,*,#384,.T.);
#339=ORIENTED_EDGE('',*,*,#399,.T.);
#340=ORIENTED_EDGE('',*,*,#396,.T.);
#341=ORIENTED_EDGE('',*,*,#393,.T.);
#342=ORIENTED_EDGE('',*,*,#390,.T.);
#343=ORIENTED_EDGE('',*,*,#387,.T.);
#344=CARTESIAN_POINT('',(0.0,21.5,-1.3164953090834E-015));
#345=DIRECTION('',(0.0,1.0,-6.12323399573677E-017));
#346=DIRECTION('',(1.0,0.0,0.0));
#347=SURFACE_STYLE_FILL_AREA(#401);
#348=FILL_AREA_STYLE('',(#402));
#349=EDGE_CURVE('',#403,#404,#405,.T.);
#350=EDGE_CURVE('',#406,#403,#407,.T.);
#351=EDGE_CURVE('',#408,#406,#409,.T.);
#352=EDGE_CURVE('',#408,#404,#410,.T.);
#353=FILL_AREA_STYLE('',(#411));
#354=EDGE_CURVE('',#412,#403,#413,.T.);
#355=EDGE_CURVE('',#414,#412,#415,.T.);
#356=EDGE_CURVE('',#406,#414,#416,.T.);
#357=FILL_AREA_STYLE('',(#417));
#358=EDGE_CURVE('',#418,#412,#419,.T.);
#359=EDGE_CURVE('',#420,#418,#421,.T.);
#360=EDGE_CURVE('',#414,#420,#422,.T.);
#361=FILL_AREA_STYLE('',(#423));
#362=EDGE_CURVE('',#424,#418,#425,.T.);
#363=EDGE_CURVE('',#426,#424,#427,.T.);
#364=EDGE_CURVE('',#420,#426,#428,.T.);
#365=FILL_AREA_STYLE('',(#429));
#366=EDGE_CURVE('',#424,#426,#430,.T.);
#367=FILL_AREA_STYLE('',(#431));
#368=EDGE_CURVE('',#418,#420,#432,.T.);
#369=FILL_AREA_STYLE('',(#433));
#370=EDGE_CURVE('',#412,#414,#434,.T.);
#371=FILL_AREA_STYLE('',(#435));
#372=EDGE_CURVE('',#403,#406,#436,.T.);
#373=FILL_AREA_STYLE('',(#437));
#374=EDGE_CURVE('',#404,#408,#438,.T.);
#375=FILL_AREA_STYLE('',(#439));
#376=EDGE_CURVE('',#440,#441,#442,.T.);
#377=EDGE_CURVE('',#443,#440,#444,.T.);
#378=EDGE_CURVE('',#445,#443,#446,.T.);
#379=EDGE_CURVE('',#447,#445,#448,.T.);
#380=EDGE_CURVE('',#449,#447,#450,.T.);
#381=EDGE_CURVE('',#441,#449,#451,.T.);
#382=FILL_AREA_STYLE('',(#452));
#383=EDGE_CURVE('',#441,#453,#454,.T.);
#384=EDGE_CURVE('',#455,#453,#456,.T.);
#385=EDGE_CURVE('',#440,#455,#457,.T.);
#386=FILL_AREA_STYLE('',(#458));
#387=EDGE_CURVE('',#459,#455,#460,.T.);
#388=EDGE_CURVE('',#443,#459,#461,.T.);
#389=FILL_AREA_STYLE('',(#462));
#390=EDGE_CURVE('',#463,#459,#464,.T.);
#391=EDGE_CURVE('',#445,#463,#465,.T.);
#392=FILL_AREA_STYLE('',(#466));
#393=EDGE_CURVE('',#467,#463,#468,.T.);
#394=EDGE_CURVE('',#447,#467,#469,.T.);
#395=FILL_AREA_STYLE('',(#470));
#396=EDGE_CURVE('',#471,#467,#472,.T.);
#397=EDGE_CURVE('',#449,#471,#473,.T.);
#398=FILL_AREA_STYLE('',(#474));
#399=EDGE_CURVE('',#453,#471,#475,.T.);
#400=FILL_AREA_STYLE('',(#476));
#401=FILL_AREA_STYLE('',(#477));
#402=FILL_AREA_STYLE_COLOUR('',#478);
#403=VERTEX_POINT('',#479);
#404=VERTEX_POINT('',#480);
#405=LINE('',#481,#482);
#406=VERTEX_POINT('',#483);
#407=CIRCLE('',#484,8.0);
#408=VERTEX_POINT('',#485);
#409=LINE('',#486,#487);
#410=CIRCLE('',#488,8.0);
#411=FILL_AREA_STYLE_COLOUR('',#489);
#412=VERTEX_POINT('',#490);
#413=LINE('',#491,#492);
#414=VERTEX_POINT('',#493);
#415=CIRCLE('',#494,4.0);
#416=LINE('',#495,#496);
#417=FILL_AREA_STYLE_COLOUR('',#497);
#418=VERTEX_POINT('',#498);
#419=LINE('',#499,#500);
#420=VERTEX_POINT('',#501);
#421=CIRCLE('',#502,4.0);
#422=LINE('',#503,#504);
#423=FILL_AREA_STYLE_COLOUR('',#505);
#424=VERTEX_POINT('',#506);
#425=LINE('',#507,#508);
#426=VERTEX_POINT('',#509);
#427=CIRCLE('',#510,3.5);
#428=LINE('',#511,#512);
#429=FILL_AREA_STYLE_COLOUR('',#513);
#430=CIRCLE('',#514,3.5);
#431=FILL_AREA_STYLE_COLOUR('',#515);
#432=CIRCLE('',#516,4.0);
#433=FILL_AREA_STYLE_COLOUR('',#517);
#434=CIRCLE('',#518,4.0);
#435=FILL_AREA_STYLE_COLOUR('',#519);
#436=CIRCLE('',#520,8.0);
#437=FILL_AREA_STYLE_COLOUR('',#521);
#438=CIRCLE('',#522,8.0);
#439=FILL_AREA_STYLE_COLOUR('',#523);
#440=VERTEX_POINT('',#524);
#441=VERTEX_POINT('',#525);
#442=LINE('',#526,#527);
#443=VERTEX_POINT('',#528);
#444=LINE('',#529,#530);
#445=VERTEX_POINT('',#531);
#446=LINE('',#532,#533);
#447=VERTEX_POINT('',#534);
#448=LINE('',#535,#536);
#449=VERTEX_POINT('',#537);
#450=LINE('',#538,#539);
#451=LINE('',#540,#541);
#452=FILL_AREA_STYLE_COLOUR('',#542);
#453=VERTEX_POINT('',#543);
#454=LINE('',#544,#545);
#455=VERTEX_POINT('',#546);
#456=LINE('',#547,#548);
#457=LINE('',#549,#550);
#458=FILL_AREA_STYLE_COLOUR('',#551);
#459=VERTEX_POINT('',#552);
#460=LINE('',#553,#554);
#461=LINE('',#555,#556);
#462=FILL_AREA_STYLE_COLOUR('',#557);
#463=VERTEX_POINT('',#558);
#464=LINE('',#559,#560);
#465=LINE('',#561,#562);
#466=FILL_AREA_STYLE_COLOUR('',#563);
#467=VERTEX_POINT('',#564);
#468=LINE('',#565,#566);
#469=LINE('',#567,#568);
#470=FILL_AREA_STYLE_COLOUR('',#569);
#471=VERTEX_POINT('',#570);
#472=LINE('',#571,#572);
#473=LINE('',#573,#574);
#474=FILL_AREA_STYLE_COLOUR('',#575);
#475=LINE('',#576,#577);
#476=FILL_AREA_STYLE_COLOUR('',#578);
#477=FILL_AREA_STYLE_COLOUR('',#579);
#478=COLOUR_RGB('',0.749019622802734,0.749019622802734,0.749019622802734);
#479=CARTESIAN_POINT('',(8.0,24.0,-2.44929359829471E-015));
#480=CARTESIAN_POINT('',(8.0,25.0,-2.51052593825207E-015));
#481=CARTESIAN_POINT('',(8.0,24.5,-2.47990976827339E-015));
#482=VECTOR('',#580,1.0);
#483=CARTESIAN_POINT('',(-8.0,24.0,-1.46957615897682E-015));
#484=AXIS2_PLACEMENT_3D('',#581,#582,#583);
#485=CARTESIAN_POINT('',(-8.0,25.0,-1.53080849893419E-015));
#486=CARTESIAN_POINT('',(-8.0,24.5,-5.20474889637626E-016));
#487=VECTOR('',#584,1.0);
#488=AXIS2_PLACEMENT_3D('',#585,#586,#587);
#489=COLOUR_RGB('',0.749019622802734,0.749019622802734,0.749019622802734);
#490=CARTESIAN_POINT('',(4.0,20.0,-1.7145055188063E-015));
#491=CARTESIAN_POINT('',(6.0,22.0,-2.0818995585505E-015));
#492=VECTOR('',#588,1.0);
#493=CARTESIAN_POINT('',(-4.0,20.0,-1.22464679914735E-015));
#494=AXIS2_PLACEMENT_3D('',#589,#590,#591);
#495=CARTESIAN_POINT('',(-6.0,22.0,-6.12323399573678E-016));
#496=VECTOR('',#592,1.0);
#497=COLOUR_RGB('',0.749019622802734,0.749019622802734,0.749019622802734);
#498=CARTESIAN_POINT('',(4.0,1.866025403784,-6.04119821552527E-016));
#499=CARTESIAN_POINT('',(4.0,10.933012701892,-1.15931267017941E-015));
#500=VECTOR('',#593,1.0);
#501=CARTESIAN_POINT('',(-4.0,1.866025403784,-1.14261101893586E-016));
#502=AXIS2_PLACEMENT_3D('',#594,#595,#596);
#503=CARTESIAN_POINT('',(-4.0,10.933012701892,-1.79595230861529E-016));
#504=VECTOR('',#597,1.0);
#505=COLOUR_RGB('',0.749019622802734,0.749019622802734,0.749019622802734);
#506=CARTESIAN_POINT('',(3.5,-2.62457961965825E-032,-4.28626379701573E-016));
#507=CARTESIAN_POINT('',(3.75,0.9330127018922,-5.16373100627063E-016));
#508=VECTOR('',#598,1.0);
#509=CARTESIAN_POINT('',(-3.5,0.0,0.0));
#510=AXIS2_PLACEMENT_3D('',#599,#600,#601);
#511=CARTESIAN_POINT('',(-3.75,0.9330127018922,4.02111998733452E-016));
#512=VECTOR('',#602,1.0);
#513=COLOUR_RGB('',0.749019622802734,0.749019622802734,0.749019622802734);
#514=AXIS2_PLACEMENT_3D('',#603,#604,#605);
#515=COLOUR_RGB('',0.749019622802734,0.749019622802734,0.749019622802734);
#516=AXIS2_PLACEMENT_3D('',#606,#607,#608);
#517=COLOUR_RGB('',0.749019622802734,0.749019622802734,0.749019622802734);
#518=AXIS2_PLACEMENT_3D('',#609,#610,#611);
#519=COLOUR_RGB('',0.749019622802734,0.749019622802734,0.749019622802734);
#520=AXIS2_PLACEMENT_3D('',#612,#613,#614);
#521=COLOUR_RGB('',0.749019622802734,0.749019622802734,0.749019622802734);
#522=AXIS2_PLACEMENT_3D('',#615,#616,#617);
#523=COLOUR_RGB('',0.749019622802734,0.749019622802734,0.749019622802734);
#524=CARTESIAN_POINT('',(-2.886751345948,25.0,-1.53080849893419E-015));
#525=CARTESIAN_POINT('',(-1.443375672974,25.0,2.5));
#526=CARTESIAN_POINT('',(-2.886751345948,25.0,-1.53080849893419E-015));
#527=VECTOR('',#618,2.8867513459481);
#528=CARTESIAN_POINT('',(-1.443375672974,25.0,-2.5));
#529=CARTESIAN_POINT('',(-1.443375672974,25.0,-2.5));
#530=VECTOR('',#619,2.8867513459481);
#531=CARTESIAN_POINT('',(1.443375672974,25.0,-2.5));
#532=CARTESIAN_POINT('',(1.443375672974,25.0,-2.5));
#533=VECTOR('',#620,2.886751345948);
#534=CARTESIAN_POINT('',(2.886751345948,25.0,-1.53080849893419E-015));
#535=CARTESIAN_POINT('',(2.886751345948,25.0,-1.53080849893419E-015));
#536=VECTOR('',#621,2.8867513459481);
#537=CARTESIAN_POINT('',(1.443375672974,25.0,2.5));
#538=CARTESIAN_POINT('',(1.443375672974,25.0,2.5));
#539=VECTOR('',#622,2.8867513459481);
#540=CARTESIAN_POINT('',(-1.443375672974,25.0,2.5));
#541=VECTOR('',#623,2.886751345948);
#542=COLOUR_RGB('',0.749019622802734,0.749019622802734,0.749019622802734);
#543=CARTESIAN_POINT('',(-1.443375672974,21.5,2.5));
#544=CARTESIAN_POINT('',(-1.443375672974,25.0,2.5));
#545=VECTOR('',#624,3.5);
#546=CARTESIAN_POINT('',(-2.886751345948,21.5,-1.3164953090834E-015));
#547=CARTESIAN_POINT('',(-2.886751345948,21.5,-1.3164953090834E-015));
#548=VECTOR('',#625,2.8867513459481);
#549=CARTESIAN_POINT('',(-2.886751345948,25.0,-1.53080849893419E-015));
#550=VECTOR('',#626,3.5);
#551=COLOUR_RGB('',0.749019622802734,0.749019622802734,0.749019622802734);
#552=CARTESIAN_POINT('',(-1.443375672974,21.5,-2.5));
#553=CARTESIAN_POINT('',(-1.443375672974,21.5,-2.5));
#554=VECTOR('',#627,2.8867513459481);
#555=CARTESIAN_POINT('',(-1.443375672974,25.0,-2.5));
#556=VECTOR('',#628,3.5);
#557=COLOUR_RGB('',0.749019622802734,0.749019622802734,0.749019622802734);
#558=CARTESIAN_POINT('',(1.443375672974,21.5,-2.5));
#559=CARTESIAN_POINT('',(1.443375672974,21.5,-2.5));
#560=VECTOR('',#629,2.886751345948);
#561=CARTESIAN_POINT('',(1.443375672974,25.0,-2.5));
#562=VECTOR('',#630,3.5);
#563=COLOUR_RGB('',0.749019622802734,0.749019622802734,0.749019622802734);
#564=CARTESIAN_POINT('',(2.886751345948,21.5,-1.3164953090834E-015));
#565=CARTESIAN_POINT('',(2.886751345948,21.5,-1.3164953090834E-015));
#566=VECTOR('',#631,2.8867513459481);
#567=CARTESIAN_POINT('',(2.886751345948,25.0,-1.53080849893419E-015));
#568=VECTOR('',#632,3.5);
#569=COLOUR_RGB('',0.749019622802734,0.749019622802734,0.749019622802734);
#570=CARTESIAN_POINT('',(1.443375672974,21.5,2.5));
#571=CARTESIAN_POINT('',(1.443375672974,21.5,2.5));
#572=VECTOR('',#633,2.8867513459481);
#573=CARTESIAN_POINT('',(1.443375672974,25.0,2.5));
#574=VECTOR('',#634,3.5);
#575=COLOUR_RGB('',0.749019622802734,0.749019622802734,0.749019622802734);
#576=CARTESIAN_POINT('',(-1.443375672974,21.5,2.5));
#577=VECTOR('',#635,2.886751345948);
#578=COLOUR_RGB('',0.749019622802734,0.749019622802734,0.749019622802734);
#579=COLOUR_RGB('',0.749019622802734,0.749019622802734,0.749019622802734);
#580=DIRECTION('',(-0.0,1.0,-6.12323399573677E-017));
#581=CARTESIAN_POINT('',(0.0,24.0,-1.46957615897682E-015));
#582=DIRECTION('',(0.0,-1.0,6.12323399573677E-017));
#583=DIRECTION('',(1.0,0.0,0.0));
#584=DIRECTION('',(0.0,-1.0,6.12323399573677E-017));
#585=CARTESIAN_POINT('',(0.0,25.0,-1.53080849893419E-015));
#586=DIRECTION('',(0.0,-1.0,6.12323399573677E-017));
#587=DIRECTION('',(1.0,0.0,0.0));
#588=DIRECTION('',(0.707106781188352,0.707106781184743,-1.29893408435435E-016));
#589=CARTESIAN_POINT('',(0.0,20.0,-1.22464679914735E-015));
#590=DIRECTION('',(0.0,-1.0,6.12323399573677E-017));
#591=DIRECTION('',(1.0,0.0,0.0));
#592=DIRECTION('',(0.707106781188352,-0.707106781184743,-4.3297802812106E-017));
#593=DIRECTION('',(-0.0,1.0,-6.12323399573677E-017));
#594=CARTESIAN_POINT('',(0.0,1.866025403784,-1.14261101893586E-016));
#595=DIRECTION('',(0.0,-1.0,6.12323399573677E-017));
#596=DIRECTION('',(1.0,0.0,0.0));
#597=DIRECTION('',(0.0,-1.0,6.12323399573677E-017));
#598=DIRECTION('',(0.258819045103342,0.965925826288848,-9.08420900833383E-017));
#599=CARTESIAN_POINT('',(0.0,0.0,0.0));
#600=DIRECTION('',(0.0,-1.0,6.12323399573677E-017));
#601=DIRECTION('',(1.0,0.0,0.0));
#602=DIRECTION('',(0.258819045103342,-0.965925826288848,2.74497070545018E-017));
#603=CARTESIAN_POINT('',(0.0,0.0,0.0));
#604=DIRECTION('',(0.0,-1.0,6.12323399573677E-017));
#605=DIRECTION('',(1.0,0.0,0.0));
#606=CARTESIAN_POINT('',(0.0,1.866025403784,-1.14261101893586E-016));
#607=DIRECTION('',(0.0,-1.0,6.12323399573677E-017));
#608=DIRECTION('',(1.0,0.0,0.0));
#609=CARTESIAN_POINT('',(0.0,20.0,-1.22464679914735E-015));
#610=DIRECTION('',(0.0,-1.0,6.12323399573677E-017));
#611=DIRECTION('',(1.0,0.0,0.0));
#612=CARTESIAN_POINT('',(0.0,24.0,-1.46957615897682E-015));
#613=DIRECTION('',(0.0,-1.0,6.12323399573677E-017));
#614=DIRECTION('',(1.0,0.0,0.0));
#615=CARTESIAN_POINT('',(0.0,25.0,-1.53080849893419E-015));
#616=DIRECTION('',(0.0,-1.0,6.12323399573677E-017));
#617=DIRECTION('',(1.0,0.0,0.0));
#618=DIRECTION('',(0.500000000000017,5.30287619362447E-017,0.866025403784429));
#619=DIRECTION('',(-0.500000000000017,5.30287619362447E-017,0.866025403784429));
#620=DIRECTION('',(-1.0,0.0,0.0));
#621=DIRECTION('',(-0.500000000000017,-5.30287619362447E-017,-0.866025403784429));
#622=DIRECTION('',(0.500000000000017,-5.30287619362447E-017,-0.866025403784429));
#623=DIRECTION('',(1.0,0.0,0.0));
#624=DIRECTION('',(0.0,-1.0,6.12323399573677E-017));
#625=DIRECTION('',(0.500000000000017,5.30287619362447E-017,0.866025403784429));
#626=DIRECTION('',(0.0,-1.0,6.12323399573677E-017));
#627=DIRECTION('',(-0.500000000000017,5.30287619362447E-017,0.866025403784429));
#628=DIRECTION('',(0.0,-1.0,6.12323399573677E-017));
#629=DIRECTION('',(-1.0,0.0,0.0));
#630=DIRECTION('',(0.0,-1.0,6.12323399573677E-017));
#631=DIRECTION('',(-0.500000000000017,-5.30287619362447E-017,-0.866025403784429));
#632=DIRECTION('',(0.0,-1.0,6.12323399573677E-017));
#633=DIRECTION('',(0.500000000000017,-5.30287619362447E-017,-0.866025403784429));
#634=DIRECTION('',(0.0,-1.0,6.12323399573677E-017));
#635=DIRECTION('',(1.0,0.0,0.0));
ENDSEC;
END-ISO-10303-21;
