ISO-10303-21;
HEADER;
FILE_DESCRIPTION(('STEP AP214'),'1');
FILE_NAME('cctmp_E4E18034-2AF2-47D1-BDB7-749FDF1457B5_2020_1_9_16_29_59_314..stp','2020-01-09T15:29:59',('Bosch Rexroth AG'),('CADClick - www.CADClick.com'),'Spatial InterOp 3D',' ','unknown authorization - (Healing Option Enabled)');
FILE_SCHEMA(('AUTOMOTIVE_DESIGN'));
ENDSEC;
DATA;
#1=MECHANICAL_DESIGN_GEOMETRIC_PRESENTATION_REPRESENTATION(' ',(#10,#11,#12,#13,#14,#15,#16,#17,#18,#19),#6);
#2=PRODUCT_DEFINITION_CONTEXT('',#20,'design');
#3=APPLICATION_PROTOCOL_DEFINITION('INTERNATIONAL STANDARD','automotive_design',1994,#20);
#4=PRODUCT_CATEGORY_RELATIONSHIP('NONE','NONE',#21,#22);
#5=SHAPE_DEFINITION_REPRESENTATION(#23,#24);
#6= (GEOMETRIC_REPRESENTATION_CONTEXT(3)GLOBAL_UNCERTAINTY_ASSIGNED_CONTEXT((#27))GLOBAL_UNIT_ASSIGNED_CONTEXT((#29,#30,#31))REPRESENTATION_CONTEXT('NONE','WORKSPACE'));
#10=STYLED_ITEM('',(#33),#34);
#11=STYLED_ITEM('',(#35),#36);
#12=STYLED_ITEM('',(#37),#38);
#13=STYLED_ITEM('',(#39),#40);
#14=STYLED_ITEM('',(#41),#42);
#15=STYLED_ITEM('',(#43),#44);
#16=STYLED_ITEM('',(#45),#46);
#17=STYLED_ITEM('',(#47),#48);
#18=STYLED_ITEM('',(#49),#50);
#19=STYLED_ITEM('',(#51),#52);
#20=APPLICATION_CONTEXT(' ');
#21=PRODUCT_CATEGORY('part','NONE');
#22=PRODUCT_RELATED_PRODUCT_CATEGORY('detail',' ',(#53));
#23=PRODUCT_DEFINITION_SHAPE('NONE','NONE',#54);
#24=ADVANCED_BREP_SHAPE_REPRESENTATION('2020_01_09__16-29-59-314',(#52,#55),#6);
#27=UNCERTAINTY_MEASURE_WITH_UNIT(LENGTH_MEASURE(1.0E-006),#29,'','');
#29= (CONVERSION_BASED_UNIT('MILLIMETRE',#58)LENGTH_UNIT()NAMED_UNIT(#61));
#30= (NAMED_UNIT(#63)PLANE_ANGLE_UNIT()SI_UNIT($,.RADIAN.));
#31= (NAMED_UNIT(#63)SOLID_ANGLE_UNIT()SI_UNIT($,.STERADIAN.));
#33=PRESENTATION_STYLE_ASSIGNMENT((#69));
#34=ADVANCED_FACE('',(#70),#71,.T.);
#35=PRESENTATION_STYLE_ASSIGNMENT((#72));
#36=ADVANCED_FACE('',(#73),#74,.T.);
#37=PRESENTATION_STYLE_ASSIGNMENT((#75));
#38=ADVANCED_FACE('',(#76),#77,.T.);
#39=PRESENTATION_STYLE_ASSIGNMENT((#78));
#40=ADVANCED_FACE('',(#79),#80,.T.);
#41=PRESENTATION_STYLE_ASSIGNMENT((#81));
#42=ADVANCED_FACE('',(#82),#83,.T.);
#43=PRESENTATION_STYLE_ASSIGNMENT((#84));
#44=ADVANCED_FACE('',(#85),#86,.T.);
#45=PRESENTATION_STYLE_ASSIGNMENT((#87));
#46=ADVANCED_FACE('',(#88),#89,.T.);
#47=PRESENTATION_STYLE_ASSIGNMENT((#90));
#48=ADVANCED_FACE('',(#91),#92,.T.);
#49=PRESENTATION_STYLE_ASSIGNMENT((#93));
#50=ADVANCED_FACE('',(#94,#95),#96,.T.);
#51=PRESENTATION_STYLE_ASSIGNMENT((#97));
#52=MANIFOLD_SOLID_BREP('2020_01_09__16-29-59-314',#98);
#53=PRODUCT('2020_01_09__16-29-59-314','','PART--DESC',(#99));
#54=PRODUCT_DEFINITION('','NONE',#100,#2);
#55=AXIS2_PLACEMENT_3D('',#101,#102,#103);
#58=LENGTH_MEASURE_WITH_UNIT(LENGTH_MEASURE(1.0),#104);
#61=DIMENSIONAL_EXPONENTS(1.0,0.0,0.0,0.0,0.0,0.0,0.0);
#63=DIMENSIONAL_EXPONENTS(0.0,0.0,0.0,0.0,0.0,0.0,0.0);
#69=SURFACE_STYLE_USAGE(.BOTH.,#105);
#70=FACE_OUTER_BOUND('',#106,.T.);
#71=CONICAL_SURFACE('',#107,2.99999999992906,0.785398162556843);
#72=SURFACE_STYLE_USAGE(.BOTH.,#108);
#73=FACE_OUTER_BOUND('',#109,.T.);
#74=CYLINDRICAL_SURFACE('',#110,3.0);
#75=SURFACE_STYLE_USAGE(.BOTH.,#111);
#76=FACE_OUTER_BOUND('',#112,.T.);
#77=TOROIDAL_SURFACE('',#113,-29.9999999999948,39.9999999999965);
#78=SURFACE_STYLE_USAGE(.BOTH.,#114);
#79=FACE_OUTER_BOUND('',#115,.T.);
#80=TOROIDAL_SURFACE('',#116,-29.9999999999948,39.9999999999965);
#81=SURFACE_STYLE_USAGE(.BOTH.,#117);
#82=FACE_OUTER_BOUND('',#118,.T.);
#83=CYLINDRICAL_SURFACE('',#119,3.0);
#84=SURFACE_STYLE_USAGE(.BOTH.,#120);
#85=FACE_OUTER_BOUND('',#121,.T.);
#86=CONICAL_SURFACE('',#122,2.99999999992906,0.785398162556843);
#87=SURFACE_STYLE_USAGE(.BOTH.,#123);
#88=FACE_OUTER_BOUND('',#124,.T.);
#89=PLANE('',#125);
#90=SURFACE_STYLE_USAGE(.BOTH.,#126);
#91=FACE_OUTER_BOUND('',#127,.T.);
#92=SPHERICAL_SURFACE('',#128,3.875);
#93=SURFACE_STYLE_USAGE(.BOTH.,#129);
#94=FACE_OUTER_BOUND('',#130,.T.);
#95=FACE_BOUND('',#131,.T.);
#96=PLANE('',#132);
#97=SURFACE_STYLE_USAGE(.BOTH.,#133);
#98=CLOSED_SHELL('',(#34,#36,#38,#40,#42,#44,#46,#48,#50));
#99=PRODUCT_CONTEXT('',#20,'mechanical');
#100=PRODUCT_DEFINITION_FORMATION_WITH_SPECIFIED_SOURCE(' ','NONE',#53,.NOT_KNOWN.);
#101=CARTESIAN_POINT('',(0.0,0.0,0.0));
#102=DIRECTION('',(0.0,0.0,1.0));
#103=DIRECTION('',(1.0,0.0,0.0));
#104= (NAMED_UNIT(#61)LENGTH_UNIT()SI_UNIT(.MILLI.,.METRE.));
#105=SURFACE_SIDE_STYLE('',(#135));
#106=EDGE_LOOP('',(#136,#137,#138,#139));
#107=AXIS2_PLACEMENT_3D('',#140,#141,#142);
#108=SURFACE_SIDE_STYLE('',(#143));
#109=EDGE_LOOP('',(#144,#145,#146,#147));
#110=AXIS2_PLACEMENT_3D('',#148,#149,#150);
#111=SURFACE_SIDE_STYLE('',(#151));
#112=EDGE_LOOP('',(#152,#153,#154,#155,#156));
#113=AXIS2_PLACEMENT_3D('',#157,#158,#159);
#114=SURFACE_SIDE_STYLE('',(#160));
#115=EDGE_LOOP('',(#161,#162,#163,#164,#165));
#116=AXIS2_PLACEMENT_3D('',#166,#167,#168);
#117=SURFACE_SIDE_STYLE('',(#169));
#118=EDGE_LOOP('',(#170,#171,#172,#173));
#119=AXIS2_PLACEMENT_3D('',#174,#175,#176);
#120=SURFACE_SIDE_STYLE('',(#177));
#121=EDGE_LOOP('',(#178,#179,#180,#181));
#122=AXIS2_PLACEMENT_3D('',#182,#183,#184);
#123=SURFACE_SIDE_STYLE('',(#185));
#124=EDGE_LOOP('',(#186,#187));
#125=AXIS2_PLACEMENT_3D('',#188,#189,#190);
#126=SURFACE_SIDE_STYLE('',(#191));
#127=EDGE_LOOP('',(#192,#193,#194,#195));
#128=AXIS2_PLACEMENT_3D('',#196,#197,#198);
#129=SURFACE_SIDE_STYLE('',(#199));
#130=EDGE_LOOP('',(#200,#201));
#131=EDGE_LOOP('',(#202,#203));
#132=AXIS2_PLACEMENT_3D('',#204,#205,#206);
#133=SURFACE_SIDE_STYLE('',(#207));
#135=SURFACE_STYLE_FILL_AREA(#208);
#136=ORIENTED_EDGE('',*,*,#209,.F.);
#137=ORIENTED_EDGE('',*,*,#210,.T.);
#138=ORIENTED_EDGE('',*,*,#211,.F.);
#139=ORIENTED_EDGE('',*,*,#212,.F.);
#140=CARTESIAN_POINT('',(0.0,0.0,-18.5000000000741));
#141=DIRECTION('',(-0.0,-0.0,1.0));
#142=DIRECTION('',(1.0,0.0,0.0));
#143=SURFACE_STYLE_FILL_AREA(#213);
#144=ORIENTED_EDGE('',*,*,#214,.F.);
#145=ORIENTED_EDGE('',*,*,#215,.F.);
#146=ORIENTED_EDGE('',*,*,#216,.F.);
#147=ORIENTED_EDGE('',*,*,#212,.T.);
#148=CARTESIAN_POINT('',(0.0,0.0,26.15));
#149=DIRECTION('',(0.0,0.0,1.0));
#150=DIRECTION('',(-1.0,0.0,0.0));
#151=SURFACE_STYLE_FILL_AREA(#217);
#152=ORIENTED_EDGE('',*,*,#218,.F.);
#153=ORIENTED_EDGE('',*,*,#219,.T.);
#154=ORIENTED_EDGE('',*,*,#220,.F.);
#155=ORIENTED_EDGE('',*,*,#221,.T.);
#156=ORIENTED_EDGE('',*,*,#222,.T.);
#157=CARTESIAN_POINT('',(-3.41060513164848E-013,-1.03028696685215E-013,-6.3005773646693E-012));
#158=DIRECTION('',(8.46979304832726E-015,6.37345542460814E-015,1.0));
#159=DIRECTION('',(1.0,0.0,-8.46979304832726E-015));
#160=SURFACE_STYLE_FILL_AREA(#223);
#161=ORIENTED_EDGE('',*,*,#218,.T.);
#162=ORIENTED_EDGE('',*,*,#224,.T.);
#163=ORIENTED_EDGE('',*,*,#225,.T.);
#164=ORIENTED_EDGE('',*,*,#220,.T.);
#165=ORIENTED_EDGE('',*,*,#226,.T.);
#166=CARTESIAN_POINT('',(-3.41060513164848E-013,-1.03028696685215E-013,-6.3005773646693E-012));
#167=DIRECTION('',(8.46979304832726E-015,6.37345542460814E-015,1.0));
#168=DIRECTION('',(1.0,0.0,-8.46979304832726E-015));
#169=SURFACE_STYLE_FILL_AREA(#227);
#170=ORIENTED_EDGE('',*,*,#214,.T.);
#171=ORIENTED_EDGE('',*,*,#228,.T.);
#172=ORIENTED_EDGE('',*,*,#216,.T.);
#173=ORIENTED_EDGE('',*,*,#229,.F.);
#174=CARTESIAN_POINT('',(0.0,0.0,26.15));
#175=DIRECTION('',(0.0,0.0,1.0));
#176=DIRECTION('',(-1.0,0.0,0.0));
#177=SURFACE_STYLE_FILL_AREA(#230);
#178=ORIENTED_EDGE('',*,*,#209,.T.);
#179=ORIENTED_EDGE('',*,*,#228,.F.);
#180=ORIENTED_EDGE('',*,*,#211,.T.);
#181=ORIENTED_EDGE('',*,*,#231,.T.);
#182=CARTESIAN_POINT('',(0.0,0.0,-18.5000000000741));
#183=DIRECTION('',(-0.0,-0.0,1.0));
#184=DIRECTION('',(1.0,0.0,0.0));
#185=SURFACE_STYLE_FILL_AREA(#232);
#186=ORIENTED_EDGE('',*,*,#210,.F.);
#187=ORIENTED_EDGE('',*,*,#231,.F.);
#188=CARTESIAN_POINT('',(0.0,0.0,-19.0));
#189=DIRECTION('',(0.0,0.0,-1.0));
#190=DIRECTION('',(0.0,-1.0,0.0));
#191=SURFACE_STYLE_FILL_AREA(#233);
#192=ORIENTED_EDGE('',*,*,#222,.F.);
#193=ORIENTED_EDGE('',*,*,#221,.F.);
#194=ORIENTED_EDGE('',*,*,#225,.F.);
#195=ORIENTED_EDGE('',*,*,#224,.F.);
#196=CARTESIAN_POINT('',(2.220446E-015,-1.387779E-016,20.125));
#197=DIRECTION('',(0.999999967941029,3.02461884465155E-016,-0.000253215205171));
#198=DIRECTION('',(2.81791288E-007,-0.999999380778966,0.001112852912894));
#199=SURFACE_STYLE_FILL_AREA(#234);
#200=ORIENTED_EDGE('',*,*,#226,.F.);
#201=ORIENTED_EDGE('',*,*,#219,.F.);
#202=ORIENTED_EDGE('',*,*,#229,.T.);
#203=ORIENTED_EDGE('',*,*,#215,.T.);
#204=CARTESIAN_POINT('',(0.0,0.0,0.0));
#205=DIRECTION('',(0.0,0.0,-1.0));
#206=DIRECTION('',(0.0,-1.0,0.0));
#207=SURFACE_STYLE_FILL_AREA(#235);
#208=FILL_AREA_STYLE('',(#236));
#209=EDGE_CURVE('',#237,#238,#239,.T.);
#210=EDGE_CURVE('',#237,#240,#241,.T.);
#211=EDGE_CURVE('',#242,#240,#243,.T.);
#212=EDGE_CURVE('',#238,#242,#244,.T.);
#213=FILL_AREA_STYLE('',(#245));
#214=EDGE_CURVE('',#246,#242,#247,.T.);
#215=EDGE_CURVE('',#248,#246,#249,.T.);
#216=EDGE_CURVE('',#238,#248,#250,.T.);
#217=FILL_AREA_STYLE('',(#251));
#218=EDGE_CURVE('',#252,#253,#254,.T.);
#219=EDGE_CURVE('',#252,#255,#256,.T.);
#220=EDGE_CURVE('',#257,#255,#258,.T.);
#221=EDGE_CURVE('',#257,#259,#260,.F.);
#222=EDGE_CURVE('',#259,#253,#261,.F.);
#223=FILL_AREA_STYLE('',(#262));
#224=EDGE_CURVE('',#253,#263,#264,.F.);
#225=EDGE_CURVE('',#263,#257,#265,.F.);
#226=EDGE_CURVE('',#255,#252,#266,.T.);
#227=FILL_AREA_STYLE('',(#267));
#228=EDGE_CURVE('',#242,#238,#268,.T.);
#229=EDGE_CURVE('',#246,#248,#269,.T.);
#230=FILL_AREA_STYLE('',(#270));
#231=EDGE_CURVE('',#240,#237,#271,.T.);
#232=FILL_AREA_STYLE('',(#272));
#233=FILL_AREA_STYLE('',(#273));
#234=FILL_AREA_STYLE('',(#274));
#235=FILL_AREA_STYLE('',(#275));
#236=FILL_AREA_STYLE_COLOUR('',#276);
#237=VERTEX_POINT('',#277);
#238=VERTEX_POINT('',#278);
#239=LINE('',#279,#280);
#240=VERTEX_POINT('',#281);
#241=CIRCLE('',#282,2.50000000084379);
#242=VERTEX_POINT('',#283);
#243=LINE('',#284,#285);
#244=CIRCLE('',#286,3.0);
#245=FILL_AREA_STYLE_COLOUR('',#287);
#246=VERTEX_POINT('',#288);
#247=LINE('',#289,#290);
#248=VERTEX_POINT('',#291);
#249=CIRCLE('',#292,3.0);
#250=LINE('',#293,#294);
#251=FILL_AREA_STYLE_COLOUR('',#295);
#252=VERTEX_POINT('',#296);
#253=VERTEX_POINT('',#297);
#254=CIRCLE('',#298,39.9999999999965);
#255=VERTEX_POINT('',#299);
#256=CIRCLE('',#300,10.0000000000016);
#257=VERTEX_POINT('',#301);
#258=CIRCLE('',#302,39.9999999999965);
#259=VERTEX_POINT('',#303);
#260=CIRCLE('',#304,3.21799307958454);
#261=CIRCLE('',#305,3.21799307958454);
#262=FILL_AREA_STYLE_COLOUR('',#306);
#263=VERTEX_POINT('',#307);
#264=CIRCLE('',#308,3.21799307958454);
#265=CIRCLE('',#309,3.21799307958454);
#266=CIRCLE('',#310,10.0000000000016);
#267=FILL_AREA_STYLE_COLOUR('',#311);
#268=CIRCLE('',#312,3.0);
#269=CIRCLE('',#313,3.0);
#270=FILL_AREA_STYLE_COLOUR('',#314);
#271=CIRCLE('',#315,2.50000000084379);
#272=FILL_AREA_STYLE_COLOUR('',#316);
#273=FILL_AREA_STYLE_COLOUR('',#317);
#274=FILL_AREA_STYLE_COLOUR('',#318);
#275=FILL_AREA_STYLE_COLOUR('',#319);
#276=COLOUR_RGB('',0.752941191196442,0.752941191196442,0.752941191196442);
#277=CARTESIAN_POINT('',(2.49999999999773,0.0,-18.9999999999486));
#278=CARTESIAN_POINT('',(3.0,-3.67394039744206E-016,-18.5000000000032));
#279=CARTESIAN_POINT('',(2.99999999992906,3.67394039735518E-016,-18.5000000000741));
#280=VECTOR('',#320,1.0);
#281=CARTESIAN_POINT('',(-2.50000000084379,-3.06161699890173E-016,-19.0));
#282=AXIS2_PLACEMENT_3D('',#321,#322,#323);
#283=CARTESIAN_POINT('',(-3.00000000000319,3.673819E-016,-18.5));
#284=CARTESIAN_POINT('',(-2.99999999992906,-3.67394039735518E-016,-18.5000000000741));
#285=VECTOR('',#324,1.0);
#286=AXIS2_PLACEMENT_3D('',#325,#326,#327);
#287=COLOUR_RGB('',0.752941191196442,0.752941191196442,0.752941191196442);
#288=CARTESIAN_POINT('',(-3.0,0.0,0.0));
#289=CARTESIAN_POINT('',(-3.0,3.67394039744206E-016,-9.2500000000016));
#290=VECTOR('',#328,1.0);
#291=CARTESIAN_POINT('',(3.0,-3.67394039744206E-016,0.0));
#292=AXIS2_PLACEMENT_3D('',#329,#330,#331);
#293=CARTESIAN_POINT('',(3.0,-3.67394039744206E-016,-9.2500000000016));
#294=VECTOR('',#332,1.0);
#295=COLOUR_RGB('',0.752941191196442,0.752941191196442,0.752941191196442);
#296=CARTESIAN_POINT('',(10.0000000000013,-1.04253343484321E-013,0.0));
#297=CARTESIAN_POINT('',(3.21799307958439,5.19253911274674E-010,22.2837370242223));
#298=AXIS2_PLACEMENT_3D('',#333,#334,#335);
#299=CARTESIAN_POINT('',(-10.000000000002,0.0,2.966117E-025));
#300=AXIS2_PLACEMENT_3D('',#336,#337,#338);
#301=CARTESIAN_POINT('',(-3.21799307958469,3.93897984248559E-014,22.2837370242224));
#302=AXIS2_PLACEMENT_3D('',#339,#340,#341);
#303=CARTESIAN_POINT('',(-1.514566E-014,3.21799307958492,22.2837370242201));
#304=AXIS2_PLACEMENT_3D('',#342,#343,#344);
#305=AXIS2_PLACEMENT_3D('',#345,#346,#347);
#306=COLOUR_RGB('',0.752941191196442,0.752941191196442,0.752941191196442);
#307=CARTESIAN_POINT('',(2.610703E-015,-3.21799307958492,22.2837370242201));
#308=AXIS2_PLACEMENT_3D('',#348,#349,#350);
#309=AXIS2_PLACEMENT_3D('',#351,#352,#353);
#310=AXIS2_PLACEMENT_3D('',#354,#355,#356);
#311=COLOUR_RGB('',0.752941191196442,0.752941191196442,0.752941191196442);
#312=AXIS2_PLACEMENT_3D('',#357,#358,#359);
#313=AXIS2_PLACEMENT_3D('',#360,#361,#362);
#314=COLOUR_RGB('',0.752941191196442,0.752941191196442,0.752941191196442);
#315=AXIS2_PLACEMENT_3D('',#363,#364,#365);
#316=COLOUR_RGB('',0.752941191196442,0.752941191196442,0.752941191196442);
#317=COLOUR_RGB('',0.752941191196442,0.752941191196442,0.752941191196442);
#318=COLOUR_RGB('',0.752941191196442,0.752941191196442,0.752941191196442);
#319=COLOUR_RGB('',0.752941012382507,0.752941012382507,0.752941012382507);
#320=DIRECTION('',(0.70710678059215,8.65956055507565E-017,0.707106781780945));
#321=CARTESIAN_POINT('',(0.0,0.0,-19.0));
#322=DIRECTION('',(0.0,-0.0,1.0));
#323=DIRECTION('',(1.0,0.0,0.0));
#324=DIRECTION('',(0.70710678059215,8.65956055507565E-017,-0.707106781780945));
#325=CARTESIAN_POINT('',(0.0,0.0,-18.5000000000032));
#326=DIRECTION('',(0.0,0.0,1.0));
#327=DIRECTION('',(-1.0,0.0,0.0));
#328=DIRECTION('',(-0.0,0.0,-1.0));
#329=CARTESIAN_POINT('',(0.0,0.0,0.0));
#330=DIRECTION('',(0.0,-0.0,1.0));
#331=DIRECTION('',(-1.0,0.0,0.0));
#332=DIRECTION('',(0.0,0.0,1.0));
#333=CARTESIAN_POINT('',(-29.9999999999952,-9.93547562877731E-014,-6.04648357321953E-012));
#334=DIRECTION('',(-1.22464679914681E-016,-1.0,6.37345542460814E-015));
#335=DIRECTION('',(1.0,-1.22464679914735E-016,-8.46979304832726E-015));
#336=CARTESIAN_POINT('',(-3.41060513164848E-013,-1.03028696685215E-013,0.0));
#337=DIRECTION('',(0.0,-0.0,1.0));
#338=DIRECTION('',(-1.0,0.0,0.0));
#339=CARTESIAN_POINT('',(29.9999999999945,-1.06702637082656E-013,-6.55467115611907E-012));
#340=DIRECTION('',(-1.22464679914681E-016,-1.0,6.37345542460814E-015));
#341=DIRECTION('',(-1.0,1.22464679914735E-016,8.46979304832726E-015));
#342=CARTESIAN_POINT('',(-1.52321872226284E-013,3.89957079323968E-014,22.2837370242223));
#343=DIRECTION('',(8.46979304832726E-015,6.37345542460814E-015,1.0));
#344=DIRECTION('',(1.0,0.0,-8.46979304832726E-015));
#345=CARTESIAN_POINT('',(-1.52321872226284E-013,3.89957079323968E-014,22.2837370242223));
#346=DIRECTION('',(8.46979304832726E-015,6.37345542460814E-015,1.0));
#347=DIRECTION('',(1.0,0.0,-8.46979304832726E-015));
#348=CARTESIAN_POINT('',(-1.52321872226284E-013,3.89957079323968E-014,22.2837370242223));
#349=DIRECTION('',(8.46979304832726E-015,6.37345542460814E-015,1.0));
#350=DIRECTION('',(1.0,0.0,-8.46979304832726E-015));
#351=CARTESIAN_POINT('',(-1.52321872226284E-013,3.89957079323968E-014,22.2837370242223));
#352=DIRECTION('',(8.46979304832726E-015,6.37345542460814E-015,1.0));
#353=DIRECTION('',(1.0,0.0,-8.46979304832726E-015));
#354=CARTESIAN_POINT('',(-3.41060513164848E-013,-1.03028696685215E-013,0.0));
#355=DIRECTION('',(0.0,-0.0,1.0));
#356=DIRECTION('',(-1.0,0.0,0.0));
#357=CARTESIAN_POINT('',(0.0,0.0,-18.5000000000032));
#358=DIRECTION('',(0.0,0.0,1.0));
#359=DIRECTION('',(-1.0,0.0,0.0));
#360=CARTESIAN_POINT('',(0.0,0.0,0.0));
#361=DIRECTION('',(0.0,-0.0,1.0));
#362=DIRECTION('',(-1.0,0.0,0.0));
#363=CARTESIAN_POINT('',(0.0,0.0,-19.0));
#364=DIRECTION('',(0.0,-0.0,1.0));
#365=DIRECTION('',(1.0,0.0,0.0));
ENDSEC;
END-ISO-10303-21;
