ISO-10303-21;
HEADER;
FILE_DESCRIPTION(('STEP AP214'),'1');
FILE_NAME('cctmp_AF8FB1E6-EC37-425F-ACB9-5034B1ED2789_2020_1_9_16_19_22_983..stp','2020-01-09T15:19:23',('Bosch Rexroth AG'),('CADClick - www.CADClick.com'),'Spatial InterOp 3D',' ','unknown authorization - (Healing Option Enabled)');
FILE_SCHEMA(('AUTOMOTIVE_DESIGN'));
ENDSEC;
DATA;
#1=MECHANICAL_DESIGN_GEOMETRIC_PRESENTATION_REPRESENTATION(' ',(#10,#11,#12,#13,#14,#15,#16,#17,#18,#19,#20,#21,#22,#23,#24,#25,#26),#6);
#2=PRODUCT_DEFINITION_CONTEXT('',#27,'design');
#3=APPLICATION_PROTOCOL_DEFINITION('INTERNATIONAL STANDARD','automotive_design',1994,#27);
#4=PRODUCT_CATEGORY_RELATIONSHIP('NONE','NONE',#28,#29);
#5=SHAPE_DEFINITION_REPRESENTATION(#30,#31);
#6= (GEOMETRIC_REPRESENTATION_CONTEXT(3)GLOBAL_UNCERTAINTY_ASSIGNED_CONTEXT((#34))GLOBAL_UNIT_ASSIGNED_CONTEXT((#36,#37,#38))REPRESENTATION_CONTEXT('NONE','WORKSPACE'));
#10=STYLED_ITEM('',(#40),#41);
#11=STYLED_ITEM('',(#42),#43);
#12=STYLED_ITEM('',(#44),#45);
#13=STYLED_ITEM('',(#46),#47);
#14=STYLED_ITEM('',(#48),#49);
#15=STYLED_ITEM('',(#50),#51);
#16=STYLED_ITEM('',(#52),#53);
#17=STYLED_ITEM('',(#54),#55);
#18=STYLED_ITEM('',(#56),#57);
#19=STYLED_ITEM('',(#58),#59);
#20=STYLED_ITEM('',(#60),#61);
#21=STYLED_ITEM('',(#62),#63);
#22=STYLED_ITEM('',(#64),#65);
#23=STYLED_ITEM('',(#66),#67);
#24=STYLED_ITEM('',(#68),#69);
#25=STYLED_ITEM('',(#70),#71);
#26=STYLED_ITEM('',(#72),#73);
#27=APPLICATION_CONTEXT(' ');
#28=PRODUCT_CATEGORY('part','NONE');
#29=PRODUCT_RELATED_PRODUCT_CATEGORY('detail',' ',(#74));
#30=PRODUCT_DEFINITION_SHAPE('NONE','NONE',#75);
#31=ADVANCED_BREP_SHAPE_REPRESENTATION('2020_01_09__16-19-22-983',(#73,#76),#6);
#34=UNCERTAINTY_MEASURE_WITH_UNIT(LENGTH_MEASURE(1.0E-006),#36,'','');
#36= (CONVERSION_BASED_UNIT('MILLIMETRE',#79)LENGTH_UNIT()NAMED_UNIT(#82));
#37= (NAMED_UNIT(#84)PLANE_ANGLE_UNIT()SI_UNIT($,.RADIAN.));
#38= (NAMED_UNIT(#84)SOLID_ANGLE_UNIT()SI_UNIT($,.STERADIAN.));
#40=PRESENTATION_STYLE_ASSIGNMENT((#90));
#41=ADVANCED_FACE('',(#91),#92,.F.);
#42=PRESENTATION_STYLE_ASSIGNMENT((#93));
#43=ADVANCED_FACE('',(#94),#95,.F.);
#44=PRESENTATION_STYLE_ASSIGNMENT((#96));
#45=ADVANCED_FACE('',(#97),#98,.F.);
#46=PRESENTATION_STYLE_ASSIGNMENT((#99));
#47=ADVANCED_FACE('',(#100),#101,.F.);
#48=PRESENTATION_STYLE_ASSIGNMENT((#102));
#49=ADVANCED_FACE('',(#103,#104),#105,.T.);
#50=PRESENTATION_STYLE_ASSIGNMENT((#106));
#51=ADVANCED_FACE('',(#107),#108,.T.);
#52=PRESENTATION_STYLE_ASSIGNMENT((#109));
#53=ADVANCED_FACE('',(#110,#111),#112,.F.);
#54=PRESENTATION_STYLE_ASSIGNMENT((#113));
#55=ADVANCED_FACE('',(#114),#115,.T.);
#56=PRESENTATION_STYLE_ASSIGNMENT((#116));
#57=ADVANCED_FACE('',(#117),#118,.T.);
#58=PRESENTATION_STYLE_ASSIGNMENT((#119));
#59=ADVANCED_FACE('',(#120),#121,.T.);
#60=PRESENTATION_STYLE_ASSIGNMENT((#122));
#61=ADVANCED_FACE('',(#123),#124,.F.);
#62=PRESENTATION_STYLE_ASSIGNMENT((#125));
#63=ADVANCED_FACE('',(#126),#127,.F.);
#64=PRESENTATION_STYLE_ASSIGNMENT((#128));
#65=ADVANCED_FACE('',(#129,#130),#131,.T.);
#66=PRESENTATION_STYLE_ASSIGNMENT((#132));
#67=ADVANCED_FACE('',(#133),#134,.F.);
#68=PRESENTATION_STYLE_ASSIGNMENT((#135));
#69=ADVANCED_FACE('',(#136,#137),#138,.F.);
#70=PRESENTATION_STYLE_ASSIGNMENT((#139));
#71=ADVANCED_FACE('',(#140),#141,.F.);
#72=PRESENTATION_STYLE_ASSIGNMENT((#142));
#73=MANIFOLD_SOLID_BREP('2020_01_09__16-19-22-983',#143);
#74=PRODUCT('2020_01_09__16-19-22-983','','PART--DESC',(#144));
#75=PRODUCT_DEFINITION('','NONE',#145,#2);
#76=AXIS2_PLACEMENT_3D('',#146,#147,#148);
#79=LENGTH_MEASURE_WITH_UNIT(LENGTH_MEASURE(1.0),#149);
#82=DIMENSIONAL_EXPONENTS(1.0,0.0,0.0,0.0,0.0,0.0,0.0);
#84=DIMENSIONAL_EXPONENTS(0.0,0.0,0.0,0.0,0.0,0.0,0.0);
#90=SURFACE_STYLE_USAGE(.BOTH.,#150);
#91=FACE_OUTER_BOUND('',#151,.T.);
#92=CYLINDRICAL_SURFACE('',#152,3.15);
#93=SURFACE_STYLE_USAGE(.BOTH.,#153);
#94=FACE_OUTER_BOUND('',#154,.T.);
#95=CYLINDRICAL_SURFACE('',#155,3.15);
#96=SURFACE_STYLE_USAGE(.BOTH.,#156);
#97=FACE_OUTER_BOUND('',#157,.T.);
#98=CYLINDRICAL_SURFACE('',#158,3.15);
#99=SURFACE_STYLE_USAGE(.BOTH.,#159);
#100=FACE_OUTER_BOUND('',#160,.T.);
#101=CYLINDRICAL_SURFACE('',#161,3.15);
#102=SURFACE_STYLE_USAGE(.BOTH.,#162);
#103=FACE_BOUND('',#163,.T.);
#104=FACE_OUTER_BOUND('',#164,.T.);
#105=PLANE('',#165);
#106=SURFACE_STYLE_USAGE(.BOTH.,#166);
#107=FACE_OUTER_BOUND('',#167,.T.);
#108=PLANE('',#168);
#109=SURFACE_STYLE_USAGE(.BOTH.,#169);
#110=FACE_BOUND('',#170,.T.);
#111=FACE_OUTER_BOUND('',#171,.T.);
#112=PLANE('',#172);
#113=SURFACE_STYLE_USAGE(.BOTH.,#173);
#114=FACE_OUTER_BOUND('',#174,.T.);
#115=PLANE('',#175);
#116=SURFACE_STYLE_USAGE(.BOTH.,#176);
#117=FACE_OUTER_BOUND('',#177,.T.);
#118=PLANE('',#178);
#119=SURFACE_STYLE_USAGE(.BOTH.,#179);
#120=FACE_OUTER_BOUND('',#180,.T.);
#121=PLANE('',#181);
#122=SURFACE_STYLE_USAGE(.BOTH.,#182);
#123=FACE_OUTER_BOUND('',#183,.T.);
#124=PLANE('',#184);
#125=SURFACE_STYLE_USAGE(.BOTH.,#185);
#126=FACE_OUTER_BOUND('',#186,.T.);
#127=PLANE('',#187);
#128=SURFACE_STYLE_USAGE(.BOTH.,#188);
#129=FACE_BOUND('',#189,.T.);
#130=FACE_OUTER_BOUND('',#190,.T.);
#131=PLANE('',#191);
#132=SURFACE_STYLE_USAGE(.BOTH.,#192);
#133=FACE_OUTER_BOUND('',#193,.T.);
#134=PLANE('',#194);
#135=SURFACE_STYLE_USAGE(.BOTH.,#195);
#136=FACE_BOUND('',#196,.T.);
#137=FACE_OUTER_BOUND('',#197,.T.);
#138=PLANE('',#198);
#139=SURFACE_STYLE_USAGE(.BOTH.,#199);
#140=FACE_OUTER_BOUND('',#200,.T.);
#141=PLANE('',#201);
#142=SURFACE_STYLE_USAGE(.BOTH.,#202);
#143=CLOSED_SHELL('',(#41,#43,#45,#47,#49,#51,#53,#55,#57,#59,#61,#63,#65,#67,#69,#71));
#144=PRODUCT_CONTEXT('',#27,'mechanical');
#145=PRODUCT_DEFINITION_FORMATION_WITH_SPECIFIED_SOURCE(' ','NONE',#74,.NOT_KNOWN.);
#146=CARTESIAN_POINT('',(0.0,0.0,0.0));
#147=DIRECTION('',(0.0,0.0,1.0));
#148=DIRECTION('',(1.0,0.0,0.0));
#149= (NAMED_UNIT(#82)LENGTH_UNIT()SI_UNIT(.MILLI.,.METRE.));
#150=SURFACE_SIDE_STYLE('',(#204));
#151=EDGE_LOOP('',(#205,#206,#207,#208));
#152=AXIS2_PLACEMENT_3D('',#209,#210,#211);
#153=SURFACE_SIDE_STYLE('',(#212));
#154=EDGE_LOOP('',(#213,#214,#215,#216));
#155=AXIS2_PLACEMENT_3D('',#217,#218,#219);
#156=SURFACE_SIDE_STYLE('',(#220));
#157=EDGE_LOOP('',(#221,#222,#223,#224));
#158=AXIS2_PLACEMENT_3D('',#225,#226,#227);
#159=SURFACE_SIDE_STYLE('',(#228));
#160=EDGE_LOOP('',(#229,#230,#231,#232));
#161=AXIS2_PLACEMENT_3D('',#233,#234,#235);
#162=SURFACE_SIDE_STYLE('',(#236));
#163=EDGE_LOOP('',(#237,#238));
#164=EDGE_LOOP('',(#239,#240,#241,#242));
#165=AXIS2_PLACEMENT_3D('',#243,#244,#245);
#166=SURFACE_SIDE_STYLE('',(#246));
#167=EDGE_LOOP('',(#247,#248,#249));
#168=AXIS2_PLACEMENT_3D('',#250,#251,#252);
#169=SURFACE_SIDE_STYLE('',(#253));
#170=EDGE_LOOP('',(#254,#255));
#171=EDGE_LOOP('',(#256,#257,#258,#259));
#172=AXIS2_PLACEMENT_3D('',#260,#261,#262);
#173=SURFACE_SIDE_STYLE('',(#263));
#174=EDGE_LOOP('',(#264,#265,#266));
#175=AXIS2_PLACEMENT_3D('',#267,#268,#269);
#176=SURFACE_SIDE_STYLE('',(#270));
#177=EDGE_LOOP('',(#271,#272,#273,#274));
#178=AXIS2_PLACEMENT_3D('',#275,#276,#277);
#179=SURFACE_SIDE_STYLE('',(#278));
#180=EDGE_LOOP('',(#279,#280,#281,#282));
#181=AXIS2_PLACEMENT_3D('',#283,#284,#285);
#182=SURFACE_SIDE_STYLE('',(#286));
#183=EDGE_LOOP('',(#287,#288,#289,#290,#291));
#184=AXIS2_PLACEMENT_3D('',#292,#293,#294);
#185=SURFACE_SIDE_STYLE('',(#295));
#186=EDGE_LOOP('',(#296,#297,#298,#299,#300,#301));
#187=AXIS2_PLACEMENT_3D('',#302,#303,#304);
#188=SURFACE_SIDE_STYLE('',(#305));
#189=EDGE_LOOP('',(#306,#307));
#190=EDGE_LOOP('',(#308,#309,#310,#311));
#191=AXIS2_PLACEMENT_3D('',#312,#313,#314);
#192=SURFACE_SIDE_STYLE('',(#315));
#193=EDGE_LOOP('',(#316,#317,#318,#319,#320));
#194=AXIS2_PLACEMENT_3D('',#321,#322,#323);
#195=SURFACE_SIDE_STYLE('',(#324));
#196=EDGE_LOOP('',(#325,#326));
#197=EDGE_LOOP('',(#327,#328,#329,#330));
#198=AXIS2_PLACEMENT_3D('',#331,#332,#333);
#199=SURFACE_SIDE_STYLE('',(#334));
#200=EDGE_LOOP('',(#335,#336,#337,#338,#339,#340));
#201=AXIS2_PLACEMENT_3D('',#341,#342,#343);
#202=SURFACE_SIDE_STYLE('',(#344));
#204=SURFACE_STYLE_FILL_AREA(#345);
#205=ORIENTED_EDGE('',*,*,#346,.F.);
#206=ORIENTED_EDGE('',*,*,#347,.F.);
#207=ORIENTED_EDGE('',*,*,#348,.F.);
#208=ORIENTED_EDGE('',*,*,#349,.F.);
#209=CARTESIAN_POINT('',(0.0,-15.0,2.25));
#210=DIRECTION('',(0.0,0.0,1.0));
#211=DIRECTION('',(0.0,-1.0,0.0));
#212=SURFACE_STYLE_FILL_AREA(#350);
#213=ORIENTED_EDGE('',*,*,#351,.F.);
#214=ORIENTED_EDGE('',*,*,#352,.F.);
#215=ORIENTED_EDGE('',*,*,#353,.F.);
#216=ORIENTED_EDGE('',*,*,#354,.F.);
#217=CARTESIAN_POINT('',(0.0,-2.25,15.0));
#218=DIRECTION('',(0.0,-1.0,0.0));
#219=DIRECTION('',(0.0,0.0,1.0));
#220=SURFACE_STYLE_FILL_AREA(#355);
#221=ORIENTED_EDGE('',*,*,#351,.T.);
#222=ORIENTED_EDGE('',*,*,#356,.F.);
#223=ORIENTED_EDGE('',*,*,#353,.T.);
#224=ORIENTED_EDGE('',*,*,#357,.F.);
#225=CARTESIAN_POINT('',(0.0,-2.25,15.0));
#226=DIRECTION('',(0.0,-1.0,0.0));
#227=DIRECTION('',(0.0,0.0,1.0));
#228=SURFACE_STYLE_FILL_AREA(#358);
#229=ORIENTED_EDGE('',*,*,#346,.T.);
#230=ORIENTED_EDGE('',*,*,#359,.F.);
#231=ORIENTED_EDGE('',*,*,#348,.T.);
#232=ORIENTED_EDGE('',*,*,#360,.F.);
#233=CARTESIAN_POINT('',(0.0,-15.0,2.25));
#234=DIRECTION('',(0.0,0.0,1.0));
#235=DIRECTION('',(0.0,-1.0,0.0));
#236=SURFACE_STYLE_FILL_AREA(#361);
#237=ORIENTED_EDGE('',*,*,#357,.T.);
#238=ORIENTED_EDGE('',*,*,#352,.T.);
#239=ORIENTED_EDGE('',*,*,#362,.F.);
#240=ORIENTED_EDGE('',*,*,#363,.F.);
#241=ORIENTED_EDGE('',*,*,#364,.T.);
#242=ORIENTED_EDGE('',*,*,#365,.T.);
#243=CARTESIAN_POINT('',(0.0,-4.5,18.5));
#244=DIRECTION('',(0.0,-1.0,0.0));
#245=DIRECTION('',(0.0,0.0,1.0));
#246=SURFACE_STYLE_FILL_AREA(#366);
#247=ORIENTED_EDGE('',*,*,#367,.F.);
#248=ORIENTED_EDGE('',*,*,#365,.F.);
#249=ORIENTED_EDGE('',*,*,#368,.T.);
#250=CARTESIAN_POINT('',(8.0,-18.5,18.5));
#251=DIRECTION('',(-1.0,0.0,0.0));
#252=DIRECTION('',(0.0,0.0,-1.0));
#253=SURFACE_STYLE_FILL_AREA(#369);
#254=ORIENTED_EDGE('',*,*,#360,.T.);
#255=ORIENTED_EDGE('',*,*,#347,.T.);
#256=ORIENTED_EDGE('',*,*,#370,.F.);
#257=ORIENTED_EDGE('',*,*,#368,.F.);
#258=ORIENTED_EDGE('',*,*,#364,.F.);
#259=ORIENTED_EDGE('',*,*,#371,.F.);
#260=CARTESIAN_POINT('',(0.0,-18.5,4.5));
#261=DIRECTION('',(0.0,0.0,-1.0));
#262=DIRECTION('',(0.0,-1.0,0.0));
#263=SURFACE_STYLE_FILL_AREA(#372);
#264=ORIENTED_EDGE('',*,*,#373,.F.);
#265=ORIENTED_EDGE('',*,*,#371,.T.);
#266=ORIENTED_EDGE('',*,*,#363,.T.);
#267=CARTESIAN_POINT('',(-8.0,-18.5,18.5));
#268=DIRECTION('',(1.0,0.0,-0.0));
#269=DIRECTION('',(0.0,0.0,1.0));
#270=SURFACE_STYLE_FILL_AREA(#374);
#271=ORIENTED_EDGE('',*,*,#367,.T.);
#272=ORIENTED_EDGE('',*,*,#375,.F.);
#273=ORIENTED_EDGE('',*,*,#376,.F.);
#274=ORIENTED_EDGE('',*,*,#377,.F.);
#275=CARTESIAN_POINT('',(0.0,-8.20101012677667,24.2989898732233));
#276=DIRECTION('',(0.0,-0.707106781186548,0.707106781186548));
#277=DIRECTION('',(0.0,0.707106781186548,0.707106781186548));
#278=SURFACE_STYLE_FILL_AREA(#378);
#279=ORIENTED_EDGE('',*,*,#373,.T.);
#280=ORIENTED_EDGE('',*,*,#379,.F.);
#281=ORIENTED_EDGE('',*,*,#380,.F.);
#282=ORIENTED_EDGE('',*,*,#381,.F.);
#283=CARTESIAN_POINT('',(0.0,-8.20101012677667,24.2989898732233));
#284=DIRECTION('',(0.0,-0.707106781186548,0.707106781186548));
#285=DIRECTION('',(0.0,0.707106781186548,0.707106781186548));
#286=SURFACE_STYLE_FILL_AREA(#382);
#287=ORIENTED_EDGE('',*,*,#380,.T.);
#288=ORIENTED_EDGE('',*,*,#383,.F.);
#289=ORIENTED_EDGE('',*,*,#384,.F.);
#290=ORIENTED_EDGE('',*,*,#385,.F.);
#291=ORIENTED_EDGE('',*,*,#386,.T.);
#292=CARTESIAN_POINT('',(-10.0,-14.0,14.0));
#293=DIRECTION('',(1.0,0.0,-0.0));
#294=DIRECTION('',(0.0,0.0,1.0));
#295=SURFACE_STYLE_FILL_AREA(#387);
#296=ORIENTED_EDGE('',*,*,#379,.T.);
#297=ORIENTED_EDGE('',*,*,#362,.T.);
#298=ORIENTED_EDGE('',*,*,#377,.T.);
#299=ORIENTED_EDGE('',*,*,#388,.T.);
#300=ORIENTED_EDGE('',*,*,#389,.T.);
#301=ORIENTED_EDGE('',*,*,#383,.T.);
#302=CARTESIAN_POINT('',(0.0,-14.0,28.0));
#303=DIRECTION('',(0.0,0.0,-1.0));
#304=DIRECTION('',(0.0,-1.0,0.0));
#305=SURFACE_STYLE_FILL_AREA(#390);
#306=ORIENTED_EDGE('',*,*,#349,.T.);
#307=ORIENTED_EDGE('',*,*,#359,.T.);
#308=ORIENTED_EDGE('',*,*,#391,.T.);
#309=ORIENTED_EDGE('',*,*,#385,.T.);
#310=ORIENTED_EDGE('',*,*,#392,.T.);
#311=ORIENTED_EDGE('',*,*,#393,.T.);
#312=CARTESIAN_POINT('',(0.0,-14.0,0.0));
#313=DIRECTION('',(0.0,0.0,-1.0));
#314=DIRECTION('',(0.0,-1.0,0.0));
#315=SURFACE_STYLE_FILL_AREA(#394);
#316=ORIENTED_EDGE('',*,*,#376,.T.);
#317=ORIENTED_EDGE('',*,*,#395,.F.);
#318=ORIENTED_EDGE('',*,*,#393,.F.);
#319=ORIENTED_EDGE('',*,*,#396,.T.);
#320=ORIENTED_EDGE('',*,*,#388,.F.);
#321=CARTESIAN_POINT('',(10.0,-14.0,14.0));
#322=DIRECTION('',(-1.0,0.0,0.0));
#323=DIRECTION('',(0.0,0.0,-1.0));
#324=SURFACE_STYLE_FILL_AREA(#397);
#325=ORIENTED_EDGE('',*,*,#354,.T.);
#326=ORIENTED_EDGE('',*,*,#356,.T.);
#327=ORIENTED_EDGE('',*,*,#384,.T.);
#328=ORIENTED_EDGE('',*,*,#389,.F.);
#329=ORIENTED_EDGE('',*,*,#396,.F.);
#330=ORIENTED_EDGE('',*,*,#392,.F.);
#331=CARTESIAN_POINT('',(0.0,0.0,14.0));
#332=DIRECTION('',(0.0,-1.0,0.0));
#333=DIRECTION('',(0.0,0.0,1.0));
#334=SURFACE_STYLE_FILL_AREA(#398);
#335=ORIENTED_EDGE('',*,*,#375,.T.);
#336=ORIENTED_EDGE('',*,*,#370,.T.);
#337=ORIENTED_EDGE('',*,*,#381,.T.);
#338=ORIENTED_EDGE('',*,*,#386,.F.);
#339=ORIENTED_EDGE('',*,*,#391,.F.);
#340=ORIENTED_EDGE('',*,*,#395,.T.);
#341=CARTESIAN_POINT('',(0.0,-28.0,14.0));
#342=DIRECTION('',(0.0,1.0,0.0));
#343=DIRECTION('',(0.0,0.0,-1.0));
#344=SURFACE_STYLE_FILL_AREA(#399);
#345=FILL_AREA_STYLE('',(#400));
#346=EDGE_CURVE('',#401,#402,#403,.T.);
#347=EDGE_CURVE('',#404,#401,#405,.T.);
#348=EDGE_CURVE('',#406,#404,#407,.T.);
#349=EDGE_CURVE('',#402,#406,#408,.T.);
#350=FILL_AREA_STYLE('',(#409));
#351=EDGE_CURVE('',#410,#411,#412,.T.);
#352=EDGE_CURVE('',#413,#410,#414,.T.);
#353=EDGE_CURVE('',#415,#413,#416,.T.);
#354=EDGE_CURVE('',#411,#415,#417,.T.);
#355=FILL_AREA_STYLE('',(#418));
#356=EDGE_CURVE('',#415,#411,#419,.T.);
#357=EDGE_CURVE('',#410,#413,#420,.T.);
#358=FILL_AREA_STYLE('',(#421));
#359=EDGE_CURVE('',#406,#402,#422,.T.);
#360=EDGE_CURVE('',#401,#404,#423,.T.);
#361=FILL_AREA_STYLE('',(#424));
#362=EDGE_CURVE('',#425,#426,#427,.T.);
#363=EDGE_CURVE('',#428,#425,#429,.T.);
#364=EDGE_CURVE('',#428,#430,#431,.T.);
#365=EDGE_CURVE('',#430,#426,#432,.T.);
#366=FILL_AREA_STYLE('',(#433));
#367=EDGE_CURVE('',#426,#434,#435,.T.);
#368=EDGE_CURVE('',#430,#434,#436,.T.);
#369=FILL_AREA_STYLE('',(#437));
#370=EDGE_CURVE('',#434,#438,#439,.T.);
#371=EDGE_CURVE('',#438,#428,#440,.T.);
#372=FILL_AREA_STYLE('',(#441));
#373=EDGE_CURVE('',#438,#425,#442,.T.);
#374=FILL_AREA_STYLE('',(#443));
#375=EDGE_CURVE('',#444,#434,#445,.T.);
#376=EDGE_CURVE('',#446,#444,#447,.T.);
#377=EDGE_CURVE('',#426,#446,#448,.T.);
#378=FILL_AREA_STYLE('',(#449));
#379=EDGE_CURVE('',#450,#425,#451,.T.);
#380=EDGE_CURVE('',#452,#450,#453,.T.);
#381=EDGE_CURVE('',#438,#452,#454,.T.);
#382=FILL_AREA_STYLE('',(#455));
#383=EDGE_CURVE('',#456,#450,#457,.T.);
#384=EDGE_CURVE('',#458,#456,#459,.T.);
#385=EDGE_CURVE('',#460,#458,#461,.T.);
#386=EDGE_CURVE('',#460,#452,#462,.T.);
#387=FILL_AREA_STYLE('',(#463));
#388=EDGE_CURVE('',#446,#464,#465,.T.);
#389=EDGE_CURVE('',#464,#456,#466,.T.);
#390=FILL_AREA_STYLE('',(#467));
#391=EDGE_CURVE('',#468,#460,#469,.T.);
#392=EDGE_CURVE('',#458,#470,#471,.T.);
#393=EDGE_CURVE('',#470,#468,#472,.T.);
#394=FILL_AREA_STYLE('',(#473));
#395=EDGE_CURVE('',#468,#444,#474,.T.);
#396=EDGE_CURVE('',#470,#464,#475,.T.);
#397=FILL_AREA_STYLE('',(#476));
#398=FILL_AREA_STYLE('',(#477));
#399=FILL_AREA_STYLE('',(#478));
#400=FILL_AREA_STYLE_COLOUR('',#479);
#401=VERTEX_POINT('',#480);
#402=VERTEX_POINT('',#481);
#403=LINE('',#482,#483);
#404=VERTEX_POINT('',#484);
#405=CIRCLE('',#485,3.15);
#406=VERTEX_POINT('',#486);
#407=LINE('',#487,#488);
#408=CIRCLE('',#489,3.15);
#409=FILL_AREA_STYLE_COLOUR('',#490);
#410=VERTEX_POINT('',#491);
#411=VERTEX_POINT('',#492);
#412=LINE('',#493,#494);
#413=VERTEX_POINT('',#495);
#414=CIRCLE('',#496,3.15);
#415=VERTEX_POINT('',#497);
#416=LINE('',#498,#499);
#417=CIRCLE('',#500,3.15);
#418=FILL_AREA_STYLE_COLOUR('',#501);
#419=CIRCLE('',#502,3.15);
#420=CIRCLE('',#503,3.15);
#421=FILL_AREA_STYLE_COLOUR('',#504);
#422=CIRCLE('',#505,3.15);
#423=CIRCLE('',#506,3.15);
#424=FILL_AREA_STYLE_COLOUR('',#507);
#425=VERTEX_POINT('',#508);
#426=VERTEX_POINT('',#509);
#427=LINE('',#510,#511);
#428=VERTEX_POINT('',#512);
#429=LINE('',#513,#514);
#430=VERTEX_POINT('',#515);
#431=LINE('',#516,#517);
#432=LINE('',#518,#519);
#433=FILL_AREA_STYLE_COLOUR('',#520);
#434=VERTEX_POINT('',#521);
#435=LINE('',#522,#523);
#436=LINE('',#524,#525);
#437=FILL_AREA_STYLE_COLOUR('',#526);
#438=VERTEX_POINT('',#527);
#439=LINE('',#528,#529);
#440=LINE('',#530,#531);
#441=FILL_AREA_STYLE_COLOUR('',#532);
#442=LINE('',#533,#534);
#443=FILL_AREA_STYLE_COLOUR('',#535);
#444=VERTEX_POINT('',#536);
#445=LINE('',#537,#538);
#446=VERTEX_POINT('',#539);
#447=LINE('',#540,#541);
#448=LINE('',#542,#543);
#449=FILL_AREA_STYLE_COLOUR('',#544);
#450=VERTEX_POINT('',#545);
#451=LINE('',#546,#547);
#452=VERTEX_POINT('',#548);
#453=LINE('',#549,#550);
#454=LINE('',#551,#552);
#455=FILL_AREA_STYLE_COLOUR('',#553);
#456=VERTEX_POINT('',#554);
#457=LINE('',#555,#556);
#458=VERTEX_POINT('',#557);
#459=LINE('',#558,#559);
#460=VERTEX_POINT('',#560);
#461=LINE('',#561,#562);
#462=LINE('',#563,#564);
#463=FILL_AREA_STYLE_COLOUR('',#565);
#464=VERTEX_POINT('',#566);
#465=LINE('',#567,#568);
#466=LINE('',#569,#570);
#467=FILL_AREA_STYLE_COLOUR('',#571);
#468=VERTEX_POINT('',#572);
#469=LINE('',#573,#574);
#470=VERTEX_POINT('',#575);
#471=LINE('',#576,#577);
#472=LINE('',#578,#579);
#473=FILL_AREA_STYLE_COLOUR('',#580);
#474=LINE('',#581,#582);
#475=LINE('',#583,#584);
#476=FILL_AREA_STYLE_COLOUR('',#585);
#477=FILL_AREA_STYLE_COLOUR('',#586);
#478=FILL_AREA_STYLE_COLOUR('',#587);
#479=COLOUR_RGB('',0.509803950786591,0.509803950786591,0.588235318660736);
#480=CARTESIAN_POINT('',(0.0,-18.15,4.5));
#481=CARTESIAN_POINT('',(0.0,-18.15,0.0));
#482=CARTESIAN_POINT('',(-3.85763741731416E-016,-18.15,2.25));
#483=VECTOR('',#588,1.0);
#484=CARTESIAN_POINT('',(3.85763741731416E-016,-11.85,4.5));
#485=AXIS2_PLACEMENT_3D('',#589,#590,#591);
#486=CARTESIAN_POINT('',(3.85763741731416E-016,-11.85,0.0));
#487=CARTESIAN_POINT('',(3.85763741731416E-016,-11.85,2.25));
#488=VECTOR('',#592,1.0);
#489=AXIS2_PLACEMENT_3D('',#593,#594,#595);
#490=COLOUR_RGB('',0.509803950786591,0.509803950786591,0.588235318660736);
#491=CARTESIAN_POINT('',(0.0,-4.5,18.15));
#492=CARTESIAN_POINT('',(0.0,0.0,18.15));
#493=CARTESIAN_POINT('',(3.85763741731416E-016,-2.25,18.15));
#494=VECTOR('',#596,1.0);
#495=CARTESIAN_POINT('',(-3.85763741731416E-016,-4.5,11.85));
#496=AXIS2_PLACEMENT_3D('',#597,#598,#599);
#497=CARTESIAN_POINT('',(-3.85763741731416E-016,0.0,11.85));
#498=CARTESIAN_POINT('',(-3.85763741731416E-016,-2.25,11.85));
#499=VECTOR('',#600,1.0);
#500=AXIS2_PLACEMENT_3D('',#601,#602,#603);
#501=COLOUR_RGB('',0.509803950786591,0.509803950786591,0.588235318660736);
#502=AXIS2_PLACEMENT_3D('',#604,#605,#606);
#503=AXIS2_PLACEMENT_3D('',#607,#608,#609);
#504=COLOUR_RGB('',0.509803950786591,0.509803950786591,0.588235318660736);
#505=AXIS2_PLACEMENT_3D('',#610,#611,#612);
#506=AXIS2_PLACEMENT_3D('',#613,#614,#615);
#507=COLOUR_RGB('',0.509803950786591,0.509803950786591,0.588235318660736);
#508=CARTESIAN_POINT('',(-8.0,-4.5,28.0));
#509=CARTESIAN_POINT('',(8.0,-4.5,28.0));
#510=CARTESIAN_POINT('',(0.0,-4.49999999999999,28.0));
#511=VECTOR('',#616,1.0);
#512=CARTESIAN_POINT('',(-8.0,-4.5,4.5));
#513=CARTESIAN_POINT('',(-8.0,-4.5,18.5));
#514=VECTOR('',#617,1.0);
#515=CARTESIAN_POINT('',(8.0,-4.5,4.5));
#516=CARTESIAN_POINT('',(0.0,-4.5,4.5));
#517=VECTOR('',#618,1.0);
#518=CARTESIAN_POINT('',(8.0,-4.5,18.5));
#519=VECTOR('',#619,1.0);
#520=COLOUR_RGB('',0.509803950786591,0.509803950786591,0.588235318660736);
#521=CARTESIAN_POINT('',(8.0,-28.0,4.5));
#522=CARTESIAN_POINT('',(8.0,-12.2255050633883,20.2744949366117));
#523=VECTOR('',#620,1.0);
#524=CARTESIAN_POINT('',(8.0,-18.5,4.5));
#525=VECTOR('',#621,1.0);
#526=COLOUR_RGB('',0.509803950786591,0.509803950786591,0.588235318660736);
#527=CARTESIAN_POINT('',(-8.0,-28.0,4.5));
#528=CARTESIAN_POINT('',(0.0,-28.0,4.5));
#529=VECTOR('',#622,1.0);
#530=CARTESIAN_POINT('',(-8.0,-18.5,4.5));
#531=VECTOR('',#623,1.0);
#532=COLOUR_RGB('',0.509803950786591,0.509803950786591,0.588235318660736);
#533=CARTESIAN_POINT('',(-8.0,-12.2255050633883,20.2744949366117));
#534=VECTOR('',#624,1.0);
#535=COLOUR_RGB('',0.509803950786591,0.509803950786591,0.588235318660736);
#536=CARTESIAN_POINT('',(10.0,-28.0,4.5));
#537=CARTESIAN_POINT('',(0.0,-28.0,4.5));
#538=VECTOR('',#625,1.0);
#539=CARTESIAN_POINT('',(10.0,-4.49999999999999,28.0));
#540=CARTESIAN_POINT('',(10.0,-12.2255050633883,20.2744949366117));
#541=VECTOR('',#626,1.0);
#542=CARTESIAN_POINT('',(0.0,-4.49999999999999,28.0));
#543=VECTOR('',#627,1.0);
#544=COLOUR_RGB('',0.509803950786591,0.509803950786591,0.588235318660736);
#545=CARTESIAN_POINT('',(-10.0,-4.49999999999999,28.0));
#546=CARTESIAN_POINT('',(0.0,-4.49999999999999,28.0));
#547=VECTOR('',#628,1.0);
#548=CARTESIAN_POINT('',(-10.0,-28.0,4.5));
#549=CARTESIAN_POINT('',(-10.0,-12.2255050633883,20.2744949366117));
#550=VECTOR('',#629,1.0);
#551=CARTESIAN_POINT('',(0.0,-28.0,4.5));
#552=VECTOR('',#630,1.0);
#553=COLOUR_RGB('',0.509803950786591,0.509803950786591,0.588235318660736);
#554=CARTESIAN_POINT('',(-10.0,0.0,28.0));
#555=CARTESIAN_POINT('',(-10.0,-14.0,28.0));
#556=VECTOR('',#631,1.0);
#557=CARTESIAN_POINT('',(-10.0,0.0,0.0));
#558=CARTESIAN_POINT('',(-10.0,0.0,14.0));
#559=VECTOR('',#632,1.0);
#560=CARTESIAN_POINT('',(-10.0,-28.0,0.0));
#561=CARTESIAN_POINT('',(-10.0,-14.0,0.0));
#562=VECTOR('',#633,1.0);
#563=CARTESIAN_POINT('',(-10.0,-28.0,14.0));
#564=VECTOR('',#634,1.0);
#565=COLOUR_RGB('',0.509803950786591,0.509803950786591,0.588235318660736);
#566=CARTESIAN_POINT('',(10.0,0.0,28.0));
#567=CARTESIAN_POINT('',(10.0,-14.0,28.0));
#568=VECTOR('',#635,1.0);
#569=CARTESIAN_POINT('',(0.0,0.0,28.0));
#570=VECTOR('',#636,1.0);
#571=COLOUR_RGB('',0.509803950786591,0.509803950786591,0.588235318660736);
#572=CARTESIAN_POINT('',(10.0,-28.0,0.0));
#573=CARTESIAN_POINT('',(0.0,-28.0,0.0));
#574=VECTOR('',#637,1.0);
#575=CARTESIAN_POINT('',(10.0,0.0,0.0));
#576=CARTESIAN_POINT('',(0.0,0.0,0.0));
#577=VECTOR('',#638,1.0);
#578=CARTESIAN_POINT('',(10.0,-14.0,0.0));
#579=VECTOR('',#639,1.0);
#580=COLOUR_RGB('',0.509803950786591,0.509803950786591,0.588235318660736);
#581=CARTESIAN_POINT('',(10.0,-28.0,14.0));
#582=VECTOR('',#640,1.0);
#583=CARTESIAN_POINT('',(10.0,0.0,14.0));
#584=VECTOR('',#641,1.0);
#585=COLOUR_RGB('',0.509803950786591,0.509803950786591,0.588235318660736);
#586=COLOUR_RGB('',0.509803950786591,0.509803950786591,0.588235318660736);
#587=COLOUR_RGB('',0.509803950786591,0.509803950786591,0.588235318660736);
#588=DIRECTION('',(0.0,0.0,-1.0));
#589=CARTESIAN_POINT('',(0.0,-15.0,4.5));
#590=DIRECTION('',(0.0,0.0,-1.0));
#591=DIRECTION('',(0.0,-1.0,0.0));
#592=DIRECTION('',(0.0,0.0,1.0));
#593=CARTESIAN_POINT('',(0.0,-15.0,0.0));
#594=DIRECTION('',(-0.0,0.0,1.0));
#595=DIRECTION('',(0.0,-1.0,0.0));
#596=DIRECTION('',(-0.0,1.0,-0.0));
#597=CARTESIAN_POINT('',(0.0,-4.5,15.0));
#598=DIRECTION('',(-0.0,1.0,0.0));
#599=DIRECTION('',(0.0,0.0,1.0));
#600=DIRECTION('',(-0.0,-1.0,-0.0));
#601=CARTESIAN_POINT('',(0.0,0.0,15.0));
#602=DIRECTION('',(0.0,-1.0,0.0));
#603=DIRECTION('',(0.0,0.0,1.0));
#604=CARTESIAN_POINT('',(0.0,0.0,15.0));
#605=DIRECTION('',(0.0,-1.0,0.0));
#606=DIRECTION('',(0.0,0.0,1.0));
#607=CARTESIAN_POINT('',(0.0,-4.5,15.0));
#608=DIRECTION('',(-0.0,1.0,0.0));
#609=DIRECTION('',(0.0,0.0,1.0));
#610=CARTESIAN_POINT('',(0.0,-15.0,0.0));
#611=DIRECTION('',(-0.0,0.0,1.0));
#612=DIRECTION('',(0.0,-1.0,0.0));
#613=CARTESIAN_POINT('',(0.0,-15.0,4.5));
#614=DIRECTION('',(0.0,0.0,-1.0));
#615=DIRECTION('',(0.0,-1.0,0.0));
#616=DIRECTION('',(1.0,0.0,0.0));
#617=DIRECTION('',(0.0,0.0,1.0));
#618=DIRECTION('',(1.0,0.0,0.0));
#619=DIRECTION('',(0.0,0.0,1.0));
#620=DIRECTION('',(-0.0,-0.707106781186548,-0.707106781186548));
#621=DIRECTION('',(0.0,-1.0,0.0));
#622=DIRECTION('',(-1.0,0.0,-0.0));
#623=DIRECTION('',(0.0,1.0,0.0));
#624=DIRECTION('',(-0.0,0.707106781186548,0.707106781186548));
#625=DIRECTION('',(-1.0,0.0,-0.0));
#626=DIRECTION('',(-0.0,-0.707106781186548,-0.707106781186548));
#627=DIRECTION('',(1.0,0.0,0.0));
#628=DIRECTION('',(1.0,0.0,0.0));
#629=DIRECTION('',(-0.0,0.707106781186548,0.707106781186548));
#630=DIRECTION('',(-1.0,0.0,-0.0));
#631=DIRECTION('',(0.0,-1.0,0.0));
#632=DIRECTION('',(0.0,0.0,1.0));
#633=DIRECTION('',(0.0,1.0,0.0));
#634=DIRECTION('',(0.0,0.0,1.0));
#635=DIRECTION('',(0.0,1.0,0.0));
#636=DIRECTION('',(-1.0,0.0,0.0));
#637=DIRECTION('',(-1.0,0.0,0.0));
#638=DIRECTION('',(1.0,0.0,0.0));
#639=DIRECTION('',(0.0,-1.0,0.0));
#640=DIRECTION('',(0.0,0.0,1.0));
#641=DIRECTION('',(0.0,0.0,1.0));
ENDSEC;
END-ISO-10303-21;
