ISO-10303-21;
HEADER;
FILE_DESCRIPTION(('STEP AP214'),'1');
FILE_NAME('cctmp_7616F5E0-AFD0-4A71-B457-2E4ADF2CD388_2020_1_8_16_32_23_648..stp','2020-01-08T15:32:23',('Bosch Rexroth AG'),('CADClick - www.CADClick.com'),'Spatial InterOp 3D',' ','unknown authorization - (Healing Option Enabled)');
FILE_SCHEMA(('AUTOMOTIVE_DESIGN'));
ENDSEC;
DATA;
#1=MECHANICAL_DESIGN_GEOMETRIC_PRESENTATION_REPRESENTATION(' ',(#10,#11,#12,#13,#14,#15,#16,#17,#18,#19,#20,#21,#22,#23,#24),#6);
#2=PRODUCT_DEFINITION_CONTEXT('',#25,'design');
#3=APPLICATION_PROTOCOL_DEFINITION('INTERNATIONAL STANDARD','automotive_design',1994,#25);
#4=PRODUCT_CATEGORY_RELATIONSHIP('NONE','NONE',#26,#27);
#5=SHAPE_DEFINITION_REPRESENTATION(#28,#29);
#6= (GEOMETRIC_REPRESENTATION_CONTEXT(3)GLOBAL_UNCERTAINTY_ASSIGNED_CONTEXT((#32))GLOBAL_UNIT_ASSIGNED_CONTEXT((#34,#35,#36))REPRESENTATION_CONTEXT('NONE','WORKSPACE'));
#10=STYLED_ITEM('',(#38),#39);
#11=STYLED_ITEM('',(#40),#41);
#12=STYLED_ITEM('',(#42),#43);
#13=STYLED_ITEM('',(#44),#45);
#14=STYLED_ITEM('',(#46),#47);
#15=STYLED_ITEM('',(#48),#49);
#16=STYLED_ITEM('',(#50),#51);
#17=STYLED_ITEM('',(#52),#53);
#18=STYLED_ITEM('',(#54),#55);
#19=STYLED_ITEM('',(#56),#57);
#20=STYLED_ITEM('',(#58),#59);
#21=STYLED_ITEM('',(#60),#61);
#22=STYLED_ITEM('',(#62),#63);
#23=STYLED_ITEM('',(#64),#65);
#24=STYLED_ITEM('',(#66),#67);
#25=APPLICATION_CONTEXT(' ');
#26=PRODUCT_CATEGORY('part','NONE');
#27=PRODUCT_RELATED_PRODUCT_CATEGORY('detail',' ',(#68));
#28=PRODUCT_DEFINITION_SHAPE('NONE','NONE',#69);
#29=ADVANCED_BREP_SHAPE_REPRESENTATION('2020_01_08__16-32-23-648',(#67,#70),#6);
#32=UNCERTAINTY_MEASURE_WITH_UNIT(LENGTH_MEASURE(1.0E-006),#34,'','');
#34= (CONVERSION_BASED_UNIT('MILLIMETRE',#73)LENGTH_UNIT()NAMED_UNIT(#76));
#35= (NAMED_UNIT(#78)PLANE_ANGLE_UNIT()SI_UNIT($,.RADIAN.));
#36= (NAMED_UNIT(#78)SOLID_ANGLE_UNIT()SI_UNIT($,.STERADIAN.));
#38=PRESENTATION_STYLE_ASSIGNMENT((#84));
#39=ADVANCED_FACE('',(#85),#86,.F.);
#40=PRESENTATION_STYLE_ASSIGNMENT((#87));
#41=ADVANCED_FACE('',(#88),#89,.F.);
#42=PRESENTATION_STYLE_ASSIGNMENT((#90));
#43=ADVANCED_FACE('',(#91),#92,.F.);
#44=PRESENTATION_STYLE_ASSIGNMENT((#93));
#45=ADVANCED_FACE('',(#94),#95,.F.);
#46=PRESENTATION_STYLE_ASSIGNMENT((#96));
#47=ADVANCED_FACE('',(#97),#98,.T.);
#48=PRESENTATION_STYLE_ASSIGNMENT((#99));
#49=ADVANCED_FACE('',(#100),#101,.T.);
#50=PRESENTATION_STYLE_ASSIGNMENT((#102));
#51=ADVANCED_FACE('',(#103),#104,.T.);
#52=PRESENTATION_STYLE_ASSIGNMENT((#105));
#53=ADVANCED_FACE('',(#106),#107,.T.);
#54=PRESENTATION_STYLE_ASSIGNMENT((#108));
#55=ADVANCED_FACE('',(#109),#110,.T.);
#56=PRESENTATION_STYLE_ASSIGNMENT((#111));
#57=ADVANCED_FACE('',(#112),#113,.T.);
#58=PRESENTATION_STYLE_ASSIGNMENT((#114));
#59=ADVANCED_FACE('',(#115),#116,.T.);
#60=PRESENTATION_STYLE_ASSIGNMENT((#117));
#61=ADVANCED_FACE('',(#118),#119,.T.);
#62=PRESENTATION_STYLE_ASSIGNMENT((#120));
#63=ADVANCED_FACE('',(#121,#122),#123,.F.);
#64=PRESENTATION_STYLE_ASSIGNMENT((#124));
#65=ADVANCED_FACE('',(#125,#126),#127,.T.);
#66=PRESENTATION_STYLE_ASSIGNMENT((#128));
#67=MANIFOLD_SOLID_BREP('2020_01_08__16-32-23-648',#129);
#68=PRODUCT('2020_01_08__16-32-23-648','','PART--DESC',(#130));
#69=PRODUCT_DEFINITION('','NONE',#131,#2);
#70=AXIS2_PLACEMENT_3D('',#132,#133,#134);
#73=LENGTH_MEASURE_WITH_UNIT(LENGTH_MEASURE(1.0),#135);
#76=DIMENSIONAL_EXPONENTS(1.0,0.0,0.0,0.0,0.0,0.0,0.0);
#78=DIMENSIONAL_EXPONENTS(0.0,0.0,0.0,0.0,0.0,0.0,0.0);
#84=SURFACE_STYLE_USAGE(.BOTH.,#136);
#85=FACE_OUTER_BOUND('',#137,.T.);
#86=PLANE('',#138);
#87=SURFACE_STYLE_USAGE(.BOTH.,#139);
#88=FACE_OUTER_BOUND('',#140,.T.);
#89=PLANE('',#141);
#90=SURFACE_STYLE_USAGE(.BOTH.,#142);
#91=FACE_OUTER_BOUND('',#143,.T.);
#92=PLANE('',#144);
#93=SURFACE_STYLE_USAGE(.BOTH.,#145);
#94=FACE_OUTER_BOUND('',#146,.T.);
#95=PLANE('',#147);
#96=SURFACE_STYLE_USAGE(.BOTH.,#148);
#97=FACE_OUTER_BOUND('',#149,.T.);
#98=PLANE('',#150);
#99=SURFACE_STYLE_USAGE(.BOTH.,#151);
#100=FACE_OUTER_BOUND('',#152,.T.);
#101=CYLINDRICAL_SURFACE('',#153,1.0);
#102=SURFACE_STYLE_USAGE(.BOTH.,#154);
#103=FACE_OUTER_BOUND('',#155,.T.);
#104=PLANE('',#156);
#105=SURFACE_STYLE_USAGE(.BOTH.,#157);
#106=FACE_OUTER_BOUND('',#158,.T.);
#107=CYLINDRICAL_SURFACE('',#159,1.0);
#108=SURFACE_STYLE_USAGE(.BOTH.,#160);
#109=FACE_OUTER_BOUND('',#161,.T.);
#110=PLANE('',#162);
#111=SURFACE_STYLE_USAGE(.BOTH.,#163);
#112=FACE_OUTER_BOUND('',#164,.T.);
#113=CYLINDRICAL_SURFACE('',#165,1.0);
#114=SURFACE_STYLE_USAGE(.BOTH.,#166);
#115=FACE_OUTER_BOUND('',#167,.T.);
#116=PLANE('',#168);
#117=SURFACE_STYLE_USAGE(.BOTH.,#169);
#118=FACE_OUTER_BOUND('',#170,.T.);
#119=CYLINDRICAL_SURFACE('',#171,1.0);
#120=SURFACE_STYLE_USAGE(.BOTH.,#172);
#121=FACE_BOUND('',#173,.T.);
#122=FACE_OUTER_BOUND('',#174,.T.);
#123=PLANE('',#175);
#124=SURFACE_STYLE_USAGE(.BOTH.,#176);
#125=FACE_BOUND('',#177,.T.);
#126=FACE_OUTER_BOUND('',#178,.T.);
#127=PLANE('',#179);
#128=SURFACE_STYLE_USAGE(.BOTH.,#180);
#129=CLOSED_SHELL('',(#39,#41,#43,#45,#47,#49,#51,#53,#55,#57,#59,#61,#63,#65));
#130=PRODUCT_CONTEXT('',#25,'mechanical');
#131=PRODUCT_DEFINITION_FORMATION_WITH_SPECIFIED_SOURCE(' ','NONE',#68,.NOT_KNOWN.);
#132=CARTESIAN_POINT('',(0.0,0.0,0.0));
#133=DIRECTION('',(0.0,0.0,1.0));
#134=DIRECTION('',(1.0,0.0,0.0));
#135= (NAMED_UNIT(#76)LENGTH_UNIT()SI_UNIT(.MILLI.,.METRE.));
#136=SURFACE_SIDE_STYLE('',(#182));
#137=EDGE_LOOP('',(#183,#184,#185,#186));
#138=AXIS2_PLACEMENT_3D('',#187,#188,#189);
#139=SURFACE_SIDE_STYLE('',(#190));
#140=EDGE_LOOP('',(#191,#192,#193,#194));
#141=AXIS2_PLACEMENT_3D('',#195,#196,#197);
#142=SURFACE_SIDE_STYLE('',(#198));
#143=EDGE_LOOP('',(#199,#200,#201,#202));
#144=AXIS2_PLACEMENT_3D('',#203,#204,#205);
#145=SURFACE_SIDE_STYLE('',(#206));
#146=EDGE_LOOP('',(#207,#208,#209,#210));
#147=AXIS2_PLACEMENT_3D('',#211,#212,#213);
#148=SURFACE_SIDE_STYLE('',(#214));
#149=EDGE_LOOP('',(#215,#216,#217,#218));
#150=AXIS2_PLACEMENT_3D('',#219,#220,#221);
#151=SURFACE_SIDE_STYLE('',(#222));
#152=EDGE_LOOP('',(#223,#224,#225,#226));
#153=AXIS2_PLACEMENT_3D('',#227,#228,#229);
#154=SURFACE_SIDE_STYLE('',(#230));
#155=EDGE_LOOP('',(#231,#232,#233,#234));
#156=AXIS2_PLACEMENT_3D('',#235,#236,#237);
#157=SURFACE_SIDE_STYLE('',(#238));
#158=EDGE_LOOP('',(#239,#240,#241,#242));
#159=AXIS2_PLACEMENT_3D('',#243,#244,#245);
#160=SURFACE_SIDE_STYLE('',(#246));
#161=EDGE_LOOP('',(#247,#248,#249,#250));
#162=AXIS2_PLACEMENT_3D('',#251,#252,#253);
#163=SURFACE_SIDE_STYLE('',(#254));
#164=EDGE_LOOP('',(#255,#256,#257,#258));
#165=AXIS2_PLACEMENT_3D('',#259,#260,#261);
#166=SURFACE_SIDE_STYLE('',(#262));
#167=EDGE_LOOP('',(#263,#264,#265,#266));
#168=AXIS2_PLACEMENT_3D('',#267,#268,#269);
#169=SURFACE_SIDE_STYLE('',(#270));
#170=EDGE_LOOP('',(#271,#272,#273,#274));
#171=AXIS2_PLACEMENT_3D('',#275,#276,#277);
#172=SURFACE_SIDE_STYLE('',(#278));
#173=EDGE_LOOP('',(#279,#280,#281,#282));
#174=EDGE_LOOP('',(#283,#284,#285,#286,#287,#288,#289,#290));
#175=AXIS2_PLACEMENT_3D('',#291,#292,#293);
#176=SURFACE_SIDE_STYLE('',(#294));
#177=EDGE_LOOP('',(#295,#296,#297,#298));
#178=EDGE_LOOP('',(#299,#300,#301,#302,#303,#304,#305,#306));
#179=AXIS2_PLACEMENT_3D('',#307,#308,#309);
#180=SURFACE_SIDE_STYLE('',(#310));
#182=SURFACE_STYLE_FILL_AREA(#311);
#183=ORIENTED_EDGE('',*,*,#312,.F.);
#184=ORIENTED_EDGE('',*,*,#313,.F.);
#185=ORIENTED_EDGE('',*,*,#314,.F.);
#186=ORIENTED_EDGE('',*,*,#315,.T.);
#187=CARTESIAN_POINT('',(0.0,3.5,5.625));
#188=DIRECTION('',(0.0,1.0,0.0));
#189=DIRECTION('',(0.0,0.0,1.0));
#190=SURFACE_STYLE_FILL_AREA(#316);
#191=ORIENTED_EDGE('',*,*,#317,.F.);
#192=ORIENTED_EDGE('',*,*,#315,.F.);
#193=ORIENTED_EDGE('',*,*,#318,.F.);
#194=ORIENTED_EDGE('',*,*,#319,.T.);
#195=CARTESIAN_POINT('',(0.0,0.0,2.0));
#196=DIRECTION('',(0.0,0.0,-1.0));
#197=DIRECTION('',(0.0,1.0,0.0));
#198=SURFACE_STYLE_FILL_AREA(#320);
#199=ORIENTED_EDGE('',*,*,#321,.F.);
#200=ORIENTED_EDGE('',*,*,#319,.F.);
#201=ORIENTED_EDGE('',*,*,#322,.F.);
#202=ORIENTED_EDGE('',*,*,#323,.T.);
#203=CARTESIAN_POINT('',(0.0,-3.5,9.25));
#204=DIRECTION('',(0.0,-1.0,0.0));
#205=DIRECTION('',(0.0,0.0,-1.0));
#206=SURFACE_STYLE_FILL_AREA(#324);
#207=ORIENTED_EDGE('',*,*,#325,.F.);
#208=ORIENTED_EDGE('',*,*,#323,.F.);
#209=ORIENTED_EDGE('',*,*,#326,.F.);
#210=ORIENTED_EDGE('',*,*,#313,.T.);
#211=CARTESIAN_POINT('',(0.0,0.0,16.5));
#212=DIRECTION('',(0.0,0.0,1.0));
#213=DIRECTION('',(0.0,-1.0,0.0));
#214=SURFACE_STYLE_FILL_AREA(#327);
#215=ORIENTED_EDGE('',*,*,#328,.T.);
#216=ORIENTED_EDGE('',*,*,#329,.F.);
#217=ORIENTED_EDGE('',*,*,#330,.T.);
#218=ORIENTED_EDGE('',*,*,#331,.T.);
#219=CARTESIAN_POINT('',(0.0,5.5,5.125));
#220=DIRECTION('',(0.0,1.0,0.0));
#221=DIRECTION('',(0.0,0.0,1.0));
#222=SURFACE_STYLE_FILL_AREA(#332);
#223=ORIENTED_EDGE('',*,*,#333,.T.);
#224=ORIENTED_EDGE('',*,*,#334,.F.);
#225=ORIENTED_EDGE('',*,*,#335,.T.);
#226=ORIENTED_EDGE('',*,*,#329,.T.);
#227=CARTESIAN_POINT('',(0.0,4.5,1.0));
#228=DIRECTION('',(1.0,0.0,0.0));
#229=DIRECTION('',(0.0,1.77635683940025E-015,-1.0));
#230=SURFACE_STYLE_FILL_AREA(#336);
#231=ORIENTED_EDGE('',*,*,#337,.T.);
#232=ORIENTED_EDGE('',*,*,#338,.F.);
#233=ORIENTED_EDGE('',*,*,#339,.T.);
#234=ORIENTED_EDGE('',*,*,#334,.T.);
#235=CARTESIAN_POINT('',(0.0,0.0,0.0));
#236=DIRECTION('',(0.0,0.0,-1.0));
#237=DIRECTION('',(0.0,1.0,0.0));
#238=SURFACE_STYLE_FILL_AREA(#340);
#239=ORIENTED_EDGE('',*,*,#341,.T.);
#240=ORIENTED_EDGE('',*,*,#342,.F.);
#241=ORIENTED_EDGE('',*,*,#343,.T.);
#242=ORIENTED_EDGE('',*,*,#338,.T.);
#243=CARTESIAN_POINT('',(0.0,-4.5,1.0));
#244=DIRECTION('',(1.0,0.0,0.0));
#245=DIRECTION('',(0.0,-1.0,-1.77635683940025E-015));
#246=SURFACE_STYLE_FILL_AREA(#344);
#247=ORIENTED_EDGE('',*,*,#345,.T.);
#248=ORIENTED_EDGE('',*,*,#346,.F.);
#249=ORIENTED_EDGE('',*,*,#347,.T.);
#250=ORIENTED_EDGE('',*,*,#342,.T.);
#251=CARTESIAN_POINT('',(0.0,-5.5,9.25));
#252=DIRECTION('',(0.0,-1.0,0.0));
#253=DIRECTION('',(0.0,0.0,-1.0));
#254=SURFACE_STYLE_FILL_AREA(#348);
#255=ORIENTED_EDGE('',*,*,#349,.T.);
#256=ORIENTED_EDGE('',*,*,#350,.F.);
#257=ORIENTED_EDGE('',*,*,#351,.T.);
#258=ORIENTED_EDGE('',*,*,#346,.T.);
#259=CARTESIAN_POINT('',(0.0,-4.5,17.5));
#260=DIRECTION('',(1.0,0.0,0.0));
#261=DIRECTION('',(0.0,-8.88178419700125E-016,1.0));
#262=SURFACE_STYLE_FILL_AREA(#352);
#263=ORIENTED_EDGE('',*,*,#353,.T.);
#264=ORIENTED_EDGE('',*,*,#354,.F.);
#265=ORIENTED_EDGE('',*,*,#355,.T.);
#266=ORIENTED_EDGE('',*,*,#350,.T.);
#267=CARTESIAN_POINT('',(0.0,0.0,18.5));
#268=DIRECTION('',(0.0,0.0,1.0));
#269=DIRECTION('',(0.0,-1.0,0.0));
#270=SURFACE_STYLE_FILL_AREA(#356);
#271=ORIENTED_EDGE('',*,*,#357,.T.);
#272=ORIENTED_EDGE('',*,*,#331,.F.);
#273=ORIENTED_EDGE('',*,*,#358,.T.);
#274=ORIENTED_EDGE('',*,*,#354,.T.);
#275=CARTESIAN_POINT('',(0.0,4.5,17.5));
#276=DIRECTION('',(1.0,0.0,-0.0));
#277=DIRECTION('',(0.0,1.0,1.77635683940025E-015));
#278=SURFACE_STYLE_FILL_AREA(#359);
#279=ORIENTED_EDGE('',*,*,#314,.T.);
#280=ORIENTED_EDGE('',*,*,#326,.T.);
#281=ORIENTED_EDGE('',*,*,#322,.T.);
#282=ORIENTED_EDGE('',*,*,#318,.T.);
#283=ORIENTED_EDGE('',*,*,#330,.F.);
#284=ORIENTED_EDGE('',*,*,#335,.F.);
#285=ORIENTED_EDGE('',*,*,#339,.F.);
#286=ORIENTED_EDGE('',*,*,#343,.F.);
#287=ORIENTED_EDGE('',*,*,#347,.F.);
#288=ORIENTED_EDGE('',*,*,#351,.F.);
#289=ORIENTED_EDGE('',*,*,#355,.F.);
#290=ORIENTED_EDGE('',*,*,#358,.F.);
#291=CARTESIAN_POINT('',(0.0,2.77555756156289E-017,9.25));
#292=DIRECTION('',(1.0,0.0,0.0));
#293=DIRECTION('',(0.0,1.0,0.0));
#294=SURFACE_STYLE_FILL_AREA(#360);
#295=ORIENTED_EDGE('',*,*,#312,.T.);
#296=ORIENTED_EDGE('',*,*,#317,.T.);
#297=ORIENTED_EDGE('',*,*,#321,.T.);
#298=ORIENTED_EDGE('',*,*,#325,.T.);
#299=ORIENTED_EDGE('',*,*,#328,.F.);
#300=ORIENTED_EDGE('',*,*,#357,.F.);
#301=ORIENTED_EDGE('',*,*,#353,.F.);
#302=ORIENTED_EDGE('',*,*,#349,.F.);
#303=ORIENTED_EDGE('',*,*,#345,.F.);
#304=ORIENTED_EDGE('',*,*,#341,.F.);
#305=ORIENTED_EDGE('',*,*,#337,.F.);
#306=ORIENTED_EDGE('',*,*,#333,.F.);
#307=CARTESIAN_POINT('',(1000.0,0.0,9.25));
#308=DIRECTION('',(1.0,0.0,0.0));
#309=DIRECTION('',(0.0,1.0,0.0));
#310=SURFACE_STYLE_FILL_AREA(#361);
#311=FILL_AREA_STYLE('',(#362));
#312=EDGE_CURVE('',#363,#364,#365,.T.);
#313=EDGE_CURVE('',#366,#363,#367,.T.);
#314=EDGE_CURVE('',#368,#366,#369,.T.);
#315=EDGE_CURVE('',#368,#364,#370,.T.);
#316=FILL_AREA_STYLE('',(#371));
#317=EDGE_CURVE('',#364,#372,#373,.T.);
#318=EDGE_CURVE('',#374,#368,#375,.T.);
#319=EDGE_CURVE('',#374,#372,#376,.T.);
#320=FILL_AREA_STYLE('',(#377));
#321=EDGE_CURVE('',#372,#378,#379,.T.);
#322=EDGE_CURVE('',#380,#374,#381,.T.);
#323=EDGE_CURVE('',#380,#378,#382,.T.);
#324=FILL_AREA_STYLE('',(#383));
#325=EDGE_CURVE('',#378,#363,#384,.T.);
#326=EDGE_CURVE('',#366,#380,#385,.T.);
#327=FILL_AREA_STYLE('',(#386));
#328=EDGE_CURVE('',#387,#388,#389,.T.);
#329=EDGE_CURVE('',#390,#388,#391,.T.);
#330=EDGE_CURVE('',#390,#392,#393,.T.);
#331=EDGE_CURVE('',#392,#387,#394,.T.);
#332=FILL_AREA_STYLE('',(#395));
#333=EDGE_CURVE('',#388,#396,#397,.T.);
#334=EDGE_CURVE('',#398,#396,#399,.T.);
#335=EDGE_CURVE('',#398,#390,#400,.T.);
#336=FILL_AREA_STYLE('',(#401));
#337=EDGE_CURVE('',#396,#402,#403,.T.);
#338=EDGE_CURVE('',#404,#402,#405,.T.);
#339=EDGE_CURVE('',#404,#398,#406,.T.);
#340=FILL_AREA_STYLE('',(#407));
#341=EDGE_CURVE('',#402,#408,#409,.T.);
#342=EDGE_CURVE('',#410,#408,#411,.T.);
#343=EDGE_CURVE('',#410,#404,#412,.T.);
#344=FILL_AREA_STYLE('',(#413));
#345=EDGE_CURVE('',#408,#414,#415,.T.);
#346=EDGE_CURVE('',#416,#414,#417,.T.);
#347=EDGE_CURVE('',#416,#410,#418,.T.);
#348=FILL_AREA_STYLE('',(#419));
#349=EDGE_CURVE('',#414,#420,#421,.T.);
#350=EDGE_CURVE('',#422,#420,#423,.T.);
#351=EDGE_CURVE('',#422,#416,#424,.T.);
#352=FILL_AREA_STYLE('',(#425));
#353=EDGE_CURVE('',#420,#426,#427,.T.);
#354=EDGE_CURVE('',#428,#426,#429,.T.);
#355=EDGE_CURVE('',#428,#422,#430,.T.);
#356=FILL_AREA_STYLE('',(#431));
#357=EDGE_CURVE('',#426,#387,#432,.T.);
#358=EDGE_CURVE('',#392,#428,#433,.T.);
#359=FILL_AREA_STYLE('',(#434));
#360=FILL_AREA_STYLE('',(#435));
#361=FILL_AREA_STYLE('',(#436));
#362=FILL_AREA_STYLE_COLOUR('',#437);
#363=VERTEX_POINT('',#438);
#364=VERTEX_POINT('',#439);
#365=LINE('',#440,#441);
#366=VERTEX_POINT('',#442);
#367=LINE('',#443,#444);
#368=VERTEX_POINT('',#445);
#369=LINE('',#446,#447);
#370=LINE('',#448,#449);
#371=FILL_AREA_STYLE_COLOUR('',#450);
#372=VERTEX_POINT('',#451);
#373=LINE('',#452,#453);
#374=VERTEX_POINT('',#454);
#375=LINE('',#455,#456);
#376=LINE('',#457,#458);
#377=FILL_AREA_STYLE_COLOUR('',#459);
#378=VERTEX_POINT('',#460);
#379=LINE('',#461,#462);
#380=VERTEX_POINT('',#463);
#381=LINE('',#464,#465);
#382=LINE('',#466,#467);
#383=FILL_AREA_STYLE_COLOUR('',#468);
#384=LINE('',#469,#470);
#385=LINE('',#471,#472);
#386=FILL_AREA_STYLE_COLOUR('',#473);
#387=VERTEX_POINT('',#474);
#388=VERTEX_POINT('',#475);
#389=LINE('',#476,#477);
#390=VERTEX_POINT('',#478);
#391=LINE('',#479,#480);
#392=VERTEX_POINT('',#481);
#393=LINE('',#482,#483);
#394=LINE('',#484,#485);
#395=FILL_AREA_STYLE_COLOUR('',#486);
#396=VERTEX_POINT('',#487);
#397=CIRCLE('',#488,1.0);
#398=VERTEX_POINT('',#489);
#399=LINE('',#490,#491);
#400=CIRCLE('',#492,1.0);
#401=FILL_AREA_STYLE_COLOUR('',#493);
#402=VERTEX_POINT('',#494);
#403=LINE('',#495,#496);
#404=VERTEX_POINT('',#497);
#405=LINE('',#498,#499);
#406=LINE('',#500,#501);
#407=FILL_AREA_STYLE_COLOUR('',#502);
#408=VERTEX_POINT('',#503);
#409=CIRCLE('',#504,1.0);
#410=VERTEX_POINT('',#505);
#411=LINE('',#506,#507);
#412=CIRCLE('',#508,1.0);
#413=FILL_AREA_STYLE_COLOUR('',#509);
#414=VERTEX_POINT('',#510);
#415=LINE('',#511,#512);
#416=VERTEX_POINT('',#513);
#417=LINE('',#514,#515);
#418=LINE('',#516,#517);
#419=FILL_AREA_STYLE_COLOUR('',#518);
#420=VERTEX_POINT('',#519);
#421=CIRCLE('',#520,1.0);
#422=VERTEX_POINT('',#521);
#423=LINE('',#522,#523);
#424=CIRCLE('',#524,1.0);
#425=FILL_AREA_STYLE_COLOUR('',#525);
#426=VERTEX_POINT('',#526);
#427=LINE('',#527,#528);
#428=VERTEX_POINT('',#529);
#429=LINE('',#530,#531);
#430=LINE('',#532,#533);
#431=FILL_AREA_STYLE_COLOUR('',#534);
#432=CIRCLE('',#535,1.0);
#433=CIRCLE('',#536,1.0);
#434=FILL_AREA_STYLE_COLOUR('',#537);
#435=FILL_AREA_STYLE_COLOUR('',#538);
#436=FILL_AREA_STYLE_COLOUR('',#539);
#437=COLOUR_RGB('',0.509803950786591,0.509803950786591,0.588235318660736);
#438=CARTESIAN_POINT('',(1000.0,3.5,16.5));
#439=CARTESIAN_POINT('',(1000.0,3.5,2.0));
#440=CARTESIAN_POINT('',(1000.0,3.5,7.4375));
#441=VECTOR('',#540,1.0);
#442=CARTESIAN_POINT('',(0.0,3.5,16.5));
#443=CARTESIAN_POINT('',(0.0,3.5,16.5));
#444=VECTOR('',#541,1.0);
#445=CARTESIAN_POINT('',(0.0,3.5,2.0));
#446=CARTESIAN_POINT('',(0.0,3.5,7.4375));
#447=VECTOR('',#542,1.0);
#448=CARTESIAN_POINT('',(0.0,3.5,2.0));
#449=VECTOR('',#543,1.0);
#450=COLOUR_RGB('',0.509803950786591,0.509803950786591,0.588235318660736);
#451=CARTESIAN_POINT('',(1000.0,-3.5,2.0));
#452=CARTESIAN_POINT('',(1000.0,0.0,2.0));
#453=VECTOR('',#544,1.0);
#454=CARTESIAN_POINT('',(0.0,-3.5,2.0));
#455=CARTESIAN_POINT('',(0.0,0.0,2.0));
#456=VECTOR('',#545,1.0);
#457=CARTESIAN_POINT('',(0.0,-3.5,2.0));
#458=VECTOR('',#546,1.0);
#459=COLOUR_RGB('',0.509803950786591,0.509803950786591,0.588235318660736);
#460=CARTESIAN_POINT('',(1000.0,-3.5,16.5));
#461=CARTESIAN_POINT('',(1000.0,-3.5,9.25));
#462=VECTOR('',#547,1.0);
#463=CARTESIAN_POINT('',(0.0,-3.5,16.5));
#464=CARTESIAN_POINT('',(0.0,-3.5,9.25));
#465=VECTOR('',#548,1.0);
#466=CARTESIAN_POINT('',(0.0,-3.5,16.5));
#467=VECTOR('',#549,1.0);
#468=COLOUR_RGB('',0.509803950786591,0.509803950786591,0.588235318660736);
#469=CARTESIAN_POINT('',(1000.0,0.0,16.5));
#470=VECTOR('',#550,1.0);
#471=CARTESIAN_POINT('',(0.0,0.0,16.5));
#472=VECTOR('',#551,1.0);
#473=COLOUR_RGB('',0.509803950786591,0.509803950786591,0.588235318660736);
#474=CARTESIAN_POINT('',(1000.0,5.5,17.5));
#475=CARTESIAN_POINT('',(1000.0,5.5,1.0));
#476=CARTESIAN_POINT('',(1000.0,5.5,9.25));
#477=VECTOR('',#552,1.0);
#478=CARTESIAN_POINT('',(0.0,5.5,1.0));
#479=CARTESIAN_POINT('',(0.0,5.5,1.0));
#480=VECTOR('',#553,1.0);
#481=CARTESIAN_POINT('',(0.0,5.5,17.5));
#482=CARTESIAN_POINT('',(0.0,5.5,9.25));
#483=VECTOR('',#554,1.0);
#484=CARTESIAN_POINT('',(0.0,5.5,17.5));
#485=VECTOR('',#555,1.0);
#486=COLOUR_RGB('',0.509803950786591,0.509803950786591,0.588235318660736);
#487=CARTESIAN_POINT('',(1000.0,4.5,0.0));
#488=AXIS2_PLACEMENT_3D('',#556,#557,#558);
#489=CARTESIAN_POINT('',(0.0,4.5,0.0));
#490=CARTESIAN_POINT('',(0.0,4.5,0.0));
#491=VECTOR('',#559,1.0);
#492=AXIS2_PLACEMENT_3D('',#560,#561,#562);
#493=COLOUR_RGB('',0.509803950786591,0.509803950786591,0.588235318660736);
#494=CARTESIAN_POINT('',(1000.0,-4.5,0.0));
#495=CARTESIAN_POINT('',(1000.0,-4.5,0.0));
#496=VECTOR('',#563,1.0);
#497=CARTESIAN_POINT('',(0.0,-4.5,0.0));
#498=CARTESIAN_POINT('',(0.0,-4.5,0.0));
#499=VECTOR('',#564,1.0);
#500=CARTESIAN_POINT('',(0.0,-4.5,0.0));
#501=VECTOR('',#565,1.0);
#502=COLOUR_RGB('',0.509803950786591,0.509803950786591,0.588235318660736);
#503=CARTESIAN_POINT('',(1000.0,-5.5,1.0));
#504=AXIS2_PLACEMENT_3D('',#566,#567,#568);
#505=CARTESIAN_POINT('',(0.0,-5.5,1.0));
#506=CARTESIAN_POINT('',(0.0,-5.5,1.0));
#507=VECTOR('',#569,1.0);
#508=AXIS2_PLACEMENT_3D('',#570,#571,#572);
#509=COLOUR_RGB('',0.509803950786591,0.509803950786591,0.588235318660736);
#510=CARTESIAN_POINT('',(1000.0,-5.5,17.5));
#511=CARTESIAN_POINT('',(1000.0,-5.5,17.5));
#512=VECTOR('',#573,1.0);
#513=CARTESIAN_POINT('',(0.0,-5.5,17.5));
#514=CARTESIAN_POINT('',(0.0,-5.5,17.5));
#515=VECTOR('',#574,1.0);
#516=CARTESIAN_POINT('',(0.0,-5.5,17.5));
#517=VECTOR('',#575,1.0);
#518=COLOUR_RGB('',0.509803950786591,0.509803950786591,0.588235318660736);
#519=CARTESIAN_POINT('',(1000.0,-4.5,18.5));
#520=AXIS2_PLACEMENT_3D('',#576,#577,#578);
#521=CARTESIAN_POINT('',(0.0,-4.5,18.5));
#522=CARTESIAN_POINT('',(0.0,-4.5,18.5));
#523=VECTOR('',#579,1.0);
#524=AXIS2_PLACEMENT_3D('',#580,#581,#582);
#525=COLOUR_RGB('',0.509803950786591,0.509803950786591,0.588235318660736);
#526=CARTESIAN_POINT('',(1000.0,4.5,18.5));
#527=CARTESIAN_POINT('',(1000.0,4.5,18.5));
#528=VECTOR('',#583,1.0);
#529=CARTESIAN_POINT('',(0.0,4.5,18.5));
#530=CARTESIAN_POINT('',(0.0,4.5,18.5));
#531=VECTOR('',#584,1.0);
#532=CARTESIAN_POINT('',(0.0,4.5,18.5));
#533=VECTOR('',#585,1.0);
#534=COLOUR_RGB('',0.509803950786591,0.509803950786591,0.588235318660736);
#535=AXIS2_PLACEMENT_3D('',#586,#587,#588);
#536=AXIS2_PLACEMENT_3D('',#589,#590,#591);
#537=COLOUR_RGB('',0.509803950786591,0.509803950786591,0.588235318660736);
#538=COLOUR_RGB('',0.509803950786591,0.509803950786591,0.588235318660736);
#539=COLOUR_RGB('',0.509803950786591,0.509803950786591,0.588235318660736);
#540=DIRECTION('',(0.0,0.0,-1.0));
#541=DIRECTION('',(1.0,0.0,0.0));
#542=DIRECTION('',(0.0,0.0,1.0));
#543=DIRECTION('',(1.0,0.0,0.0));
#544=DIRECTION('',(0.0,-1.0,0.0));
#545=DIRECTION('',(-0.0,1.0,0.0));
#546=DIRECTION('',(1.0,0.0,0.0));
#547=DIRECTION('',(-0.0,0.0,1.0));
#548=DIRECTION('',(0.0,0.0,-1.0));
#549=DIRECTION('',(1.0,0.0,0.0));
#550=DIRECTION('',(0.0,1.0,0.0));
#551=DIRECTION('',(0.0,-1.0,0.0));
#552=DIRECTION('',(-0.0,-0.0,-1.0));
#553=DIRECTION('',(1.0,0.0,0.0));
#554=DIRECTION('',(0.0,0.0,1.0));
#555=DIRECTION('',(1.0,0.0,0.0));
#556=CARTESIAN_POINT('',(1000.0,4.5,1.0));
#557=DIRECTION('',(-1.0,0.0,-0.0));
#558=DIRECTION('',(0.0,1.77635683940025E-015,-1.0));
#559=DIRECTION('',(1.0,0.0,0.0));
#560=CARTESIAN_POINT('',(0.0,4.5,1.0));
#561=DIRECTION('',(1.0,0.0,0.0));
#562=DIRECTION('',(0.0,1.77635683940025E-015,-1.0));
#563=DIRECTION('',(-0.0,-1.0,-0.0));
#564=DIRECTION('',(1.0,0.0,0.0));
#565=DIRECTION('',(0.0,1.0,0.0));
#566=CARTESIAN_POINT('',(1000.0,-4.5,1.0));
#567=DIRECTION('',(-1.0,-0.0,0.0));
#568=DIRECTION('',(0.0,-1.0,-1.77635683940025E-015));
#569=DIRECTION('',(1.0,0.0,0.0));
#570=CARTESIAN_POINT('',(0.0,-4.5,1.0));
#571=DIRECTION('',(1.0,0.0,0.0));
#572=DIRECTION('',(0.0,-1.0,-1.77635683940025E-015));
#573=DIRECTION('',(0.0,0.0,1.0));
#574=DIRECTION('',(1.0,0.0,0.0));
#575=DIRECTION('',(0.0,0.0,-1.0));
#576=CARTESIAN_POINT('',(1000.0,-4.5,17.5));
#577=DIRECTION('',(-1.0,-0.0,0.0));
#578=DIRECTION('',(0.0,-8.88178419700125E-016,1.0));
#579=DIRECTION('',(1.0,0.0,0.0));
#580=CARTESIAN_POINT('',(0.0,-4.5,17.5));
#581=DIRECTION('',(1.0,0.0,0.0));
#582=DIRECTION('',(0.0,-8.88178419700125E-016,1.0));
#583=DIRECTION('',(0.0,1.0,0.0));
#584=DIRECTION('',(1.0,0.0,0.0));
#585=DIRECTION('',(0.0,-1.0,0.0));
#586=CARTESIAN_POINT('',(1000.0,4.5,17.5));
#587=DIRECTION('',(-1.0,0.0,0.0));
#588=DIRECTION('',(0.0,1.0,1.77635683940025E-015));
#589=CARTESIAN_POINT('',(0.0,4.5,17.5));
#590=DIRECTION('',(1.0,0.0,-0.0));
#591=DIRECTION('',(0.0,1.0,1.77635683940025E-015));
ENDSEC;
END-ISO-10303-21;
